Elizabeth Cotten - Freight Train tab

                                   Friegt Train                                     

Here is the YouTube video I tabbed this from

http://www.youtube.com/watch?v=lr2W3QfAxvk




                                                            
e|--3---------0---------|----------------------|------------3---------|
B|----------------------|--3---------1---------|--0-------------------|
G|----------------------|----------------------|----------------------|
D|-------2---------2----|-------2---------2----|-------0---------0----|
A|--3---------3---------|--3---------3---------|----------------------|
E|----------------------|----------------------|--3---------3---------|


                                                         
--1-------------------|--3---------1---------|--0-------------------|
----------------------|----------------------|------------3---------|
----------------------|----------------------|----------------------|
-------0---------0----|-------0---------0----|-------0---------0----|
----------------------|----------------------|----------------------|
--3---------3---------|--3---------3---------|--3---------3---------|


                                                         
------------3---------|--0-------------------|--0--------------1----|
--1-------------------|----------------------|----------------------|
----------------------|----------------------|----------------------|
-------2---------2----|-------2---------2----|-------2---------2----|
--3---------3---------|--3-------------------|----------------------|
----------------------|------------3---------|--0---------0---------|


                                                         
--0-------------------|----------------------|----------------------|
-----------------3----|--1--------------3----|--1--------------3----|
----------------------|----------------------|----------------------|
-------2---------2----|-------3---------3----|-------3---------3----|
----------------------|----------------------|----------------------|
--0---------0---------|--1---------1---------|--1---------1---------|


                                                         
--0-------------------|------------0---------|----------------------|
-----------------1----|--0--------------3----|--1-------------------|
----------------------|-------0--------------|----------------------|
-------2---------2----|-------0---------0----|-------2---------2----|
--3-------------------|----------------------|--3-------------------|
------------3---------|--3---------3---------|------------3---------|

                     Guitar Break
                                                         
--------------------|--3---------0---------|-----------------------|
--1-----------------|----------------------|--3---------1-------1--|
--------------------|----------------------|-----------------------|
--------------------|-------2---------2----|-------2---------2-----|
--3-----------------|--3---------3---------|--3---------3----------|
--------------------|----------------------|-----------------------|


                                                         
------------3---------|--1-------------------|--3----------1---------|
--0-------------------|----------------------|-----0-----------------|
----------------------|----------------------|-----------------------|
-------0---------0----|-------0---------0----|--------0---------0----|
----------------------|----------------------|-----------------------|
--3---------3---------|--3---------3---------|--3----------3---------|


                                                         
--0-------------------|------------3----------|--0--------------------|
------------3---------|--1-----------------1--|-----------------------|
----------------------|-----------------------|--------------------0--|
-------0---------0----|-------2---------2-----|-------2---------2-----|
----------------------|--3---------3----------|--3--------------------|
--3---------3---------|-----------------------|------------3----------|


                                                         
-----0--------0----1----|--0--------0-------------|------------------------|
------------------------|-----0-----------3-------|-----1-----1--1----3----|
--1--------1------------|-------------------------|------------------------|
--------2----------2----|--------2-----------2----|--------3----------3----|
------------------------|-------------------------|------------------------|
--0-----------0---------|--0-----------0----------|--1-----------1---------|


                                                         
-----------------------|--0--------------------|----------------0-------|
----------1--3----4----|----------1-------1----|--0-------3-------------|
-----------------------|-----------------------|------------------------|
-------3----------4----|-------2----------2----|-------0-----------0----|
-----------------------|--3--------------------|------------------------|
--1----------1---------|-------------3---------|--3----------3----------|


                                       
----------------------|--------------------|
--1-------------------|--1-----------------|
----------------------|--------------------|
-------2---------2----|--------------------|
--3-------------------|--3-----------------|
------------3---------|--------------------|

Freight train, freight train, run so fast
Freight train, freight train, run so fast
Please don't tell what train I'm on
They won't know what route I'm going

When I'm dead and in my grave
No more good times here I crave
Place the stones at my head and feet
And tell them all I've gone to sleep

When I die, oh bury me deep
Down at the end of old Chestnut Street
So I can hear old Number Nine
As she comes rolling by

When I die, oh bury me deep
Down at the end of old Chestnut Street
Place the stones at my head and feet
And tell them all I've gone to sleep

Freight train, freight train, run so fast
Freight train, freight train, run so fast
Please don't tell what train I'm on
They won't know what route I'm going

Tap to rate this tab
 
# A B C D E F G H I J K L M N O P Q R S T U V W X Y Z