Song name
# A B C D E F G H I J K L M N O P Q R S T U V W X Y Z

Elizabeth Gillies - You Dont Know Me tab

INTRO

      G5                                                         Em
|-------------|------|----------|------|----------|---------|------------|-----|
|-------------|------|----------|------|----------|---------|------------|-----|
|-------------|------|----------|------|----------|---------|------------|-----|
|--5-5-5-5----|--5-5-|--5-5-5-5-|--5-5-|--5-5-5-5-|--5-7----|--2-2-2-2---|-2-2-|
|--5-5-5-5----|--5-5-|--5-5-5-5-|--5-5-|--5-5-5-5-|--5-7----|--2-2-2-2---|-2-2-|
|--3-3-3-3----|--3-3-|--3-3-3-3-|--3-3-|--3-3-3-3-|--3-5----|--0-0-0-0---|-0-0-|

|---------|------|----------|------|
|---------|------|----------|------|
|---------|------|----------|------|
|-2-2-2-2-|--2-2-|--2-2-2-2-|--2-7-|
|-2-2-2-2-|--2-2-|--2-2-2-2-|--2-7-|
|-0-0-0-0-|--0-0-|--0-0-0-0-|--0-5-| Repeat X3

Verse

      G5                                                         Em
|-------------|------|----------|------|----------|---------|------------|-----|
|-------------|------|----------|------|----------|---------|------------|-----|
|-------------|------|----------|------|----------|---------|------------|-----|
|--5-5-5-5----|--5-5-|--5-5-5-5-|--5-5-|--5-5-5-5-|--5-7----|--2-2-2-2---|-2-2-|
|--5-5-5-5----|--5-5-|--5-5-5-5-|--5-5-|--5-5-5-5-|--5-7----|--2-2-2-2---|-2-2-|
|--3-3-3-3----|--3-3-|--3-3-3-3-|--3-3-|--3-3-3-3-|--3-5----|--0-0-0-0---|-0-0-|

|---------|------|----------|------|
|---------|------|----------|------|
|---------|------|----------|------|
|-2-2-2-2-|--2-2-|--2-2-2-2-|--2-7-|
|-2-2-2-2-|--2-2-|--2-2-2-2-|--2-7-|
|-0-0-0-0-|--0-0-|--0-0-0-0-|--0-5-| Play Along to Lyrics

Chrorus
     G5               B5             Em               B#5
|----------|-----|--------|-----|----------|-----|-----------|-----|
|----------|-----|--------|-----|----------|-----|-----------|-----|
|----------|-----|-4-4-4-4|-4-4-|----------|-----|--5-5-5-5--|-5-5-|
|--5-5-5-5-|-3-3-|-4-4-4-4|-4-4-|--2-2-2-2-|-2-2-|--5-5-5-5--|-5-5-|
|--5-5-5-5-|-3-3-|-2-2-2-2|-2-2-|--2-2-2-2-|-2-2-|--3-3-3-3--|-3-3-|  Repeat X2
|--3-3-3-3-|-5-5-|--------|-----|--0-0-0-0-|-0-0-|-----------|-----|

Refrain

|--3---3-2---2-3---3-2---2----------|
|----3-----2-----3-----2------------|
|-----------------------------------|
|-----------------------------------|
|-----------------------------------|
|-------------------------  Repeat--| X2

Slow Chorus

|------------------------------------------|
|------------------------------------------|
|------------------------------------------|
|--------------4---4---------------5---5---|
|----5---5---2---2---2---2---2---3---3---3-|
|--3---3---3-----------0---0---0-----------|

Play Chorus


Thanks :) :|
Tap to rate this tab
 
# A B C D E F G H I J K L M N O P Q R S T U V W X Y Z