Song name
# A B C D E F G H I J K L M N O P Q R S T U V W X Y Z

Elizabeth Huett - Wreck Of Who I Am tab

     Hi there! I love this song and had to tab
it out!  Very easy to play :)  Have fun!!

Tabbed along to this video-
http://www.youtube.com/watch?v=qR5pwUaQk94




STANDARD TUNING w/
CAPO ON 4


Intro-

        G          Dsus4        Cadd9       Cadd9
e|--------------------------------------------------------|
B|-----3---3--------3---3--------3---3--------3---3-------|
G|-----0-----0------2-----2------0------0-----0-----0-----|
D|--------0-------0----0----------------------------------|
A|-----------------------------3----3-------3----3--------|
E|---3----------------------------------------------------|


Verse-

        G          Dsus4        Cadd9       Cadd9
e|--------------------------------------------------------|
B|-----3---3--------3---3--------3---3--------3---3-------|
G|-----0-----0------2-----2------0------0-----0-----0-----| x2
D|--------0-------0----0----------------------------------|
A|-----------------------------3----3-------3----3--------|
E|---3----------------------------------------------------|

        G
And the night's awake
    Dsus4             Cadd9
The days are breaking down
        G
And the cold wind cries
    Dsus4            Cadd9
But you don't make a sound


        G          Dsus4        Em7       Cadd9            G
e|--------------------------------------------------------------------|
B|-----3---3--------3---3--------3---3--------3---3-------3---3-------|
G|-----0-----0------2-----2------0------0-----0-----0-----0-----0-----|
D|--------0-------0----0------------2------------------------0--------|
A|-----------------------------2------------3----3--------------------|
E|---3---------------------------------------------------3------------|

        G
All the times you learnt
        Dsus4
And the tries you burnt
      Em7
Won't fade away
       Cadd9           G
Just replay the same mistakes like chains that'll


       Dsus4        Cadd9       Cadd9
e|--------------------------------------------|
B|------3---3--------3---3--------3---3-------|
G|------2-----2------0------0-----0-----0-----|
D|----0----0----------------------------------|
A|-----------------3----3-------3----3--------|
E|--------------------------------------------|

 Dsus4         Cadd9
 Never let you out


Chorus-

      Dsus4        Cadd9        Dsus4         Em7
e|----------------------------------------------------------|
B|------3---3--------3---3--------3---3--------3----3-------|
G|------2-----2------0-----0------2-----2------0------0-----|
D|----0----0--------------------0----0------------2---------|
A|-----------------3----3--------------------2--------------|
E|----------------------------------------------------------|


                   Dsus4            Cadd9
And what would you think if you saw me?
           Dsus4                  Em7
All of the things you thought you would be Now that the



      Dsus4        Em7         Cadd9
e|---------------------------------------------|
B|------3---3--------3---3--------3---3--------|
G|------2-----2------0------0-----0-----0------|
D|----0----0-----------------------------------|
A|-----------------2----2-------3----3-----3---|
E|---------------------------------------------|

 Dsus4                Em7
 Leaves have gone and drifted off
     Cadd9
 And fallen from the tree


[Strum]

 G Dsus4 Cadd9
Oh....
 G Dsus4 Cadd9
Oh..oh...


        G
And the tide is strong
     Dsus4             Cadd9
That keeps me from the land (From the land)
        G
And I'm low on faith
      Dsus4           Cadd9
And I pray with shaky hands (shaky hands)


        G
Well it hurts like hell
         Dsus4
Tried to tell myself
               G6
This ain't the only thing
       Cadd9
That's meant for me
      G
Gotta piece back together
    Dsus4          Cadd9
The wreck of who I am (who I am)


                   Dsus4            Cadd9
And what would you think if you saw me?
           Dsus4                  G6
All of the things you thought you could be
             Dsus4            G6
Now that the ship is lost and drifting off
Cadd9              G   Cadd9                *Kind of tricky to get the the
Floating aimlessly...  on an endless sea     timing of that G


G Dsus4 Cadd9
        Oh. Oh..
G Dsus4 Cadd9
Oh. Oh..


Bridge-

      Dsus4                   G6
And I know this road it won't lead me home
      G                     Cadd9
And I know I've gotta change
        Dsus4              G6
But I'm so far gone I keep holding on
     Dsus4        Cadd9 -once
If I only had the strenght



      Dsus4        Cadd9        Dsus4         Em7
e|----------------------------------------------------------|
B|------3---3--------3---3--------3---3--------3----3-------|
G|------2-----2------0-----0------2-----2------0------0-----|
D|----0----0--------------------0----0------------2---------|
A|-----------------3----3--------------------2--------------|
E|----------------------------------------------------------|

           Dsus4              Cadd9
What do ya think when you see me?
           Dsus4               Em7
All of the things we dreamed I would be



      Dsus4        Em7         Cadd9              Em7    Cadd9
e|-------------------------------------------------------------------------|
B|------3---3--------3---3--------3---3------3-----3------3----3-----------|
G|------2-----2------0------0-----0-----0----0-----0------0------0---------|
D|----0----0------------2--------------------------------------------------|
A|-----------------2------------3----3-----3-----2------3----3------3------|
E|-------------------------------------------------------------------------|

           Dsus4             Em7
With every battle lost, when all I'm not
   Cadd9                Em7
Is all that you can see
       Cadd9
Please don't give up...


[Strum]

     G Dsus4 Cadd9
On me
                   G Dsus4 Cadd9
Don't give up on me        Don't give up

Outro- Fades out
G Dsus4 Cadd9....G -once



Have Fun and RATE:)
cristy♥twilight
Tap to rate this tab
# A B C D E F G H I J K L M N O P Q R S T U V W X Y Z