Song name
# A B C D E F G H I J K L M N O P Q R S T U V W X Y Z

Elizas Playground - Lose My Faith tab

Title: Lose My Faith
Artist: Eliza's Playground
Music: Marko M., Mauri R.
Lyrics: Marko M.

Tabbed by: Johnny Lucifer

Check this band out at elizasplayground.cjb.net


* = natural harmonics
. = palm mute
Z = pause

Riff1a:
e|-----------------|
B|-----------------|
G|-----------------|
D|-0-0-3-05-01-0-6-|
A|-0-0-3-05-01-0-6-|
D|-0-0-3-05-01-0-6-|

Riff1b:
e|---------------Z-|
B|---------------Z-|
G|---------------Z-|
D|-0-0-3-05-01-0-Z-|
A|-0-0-3-05-01-0-Z-|
D|-0-0-3-05-01-0-Z-|

Riff2:
e|---------------------------------|
B|-7*------------------------------|
G|----7*---------------------------|
D|-------7*------------------------|
A|---------------------------------|
D|---------------------------------|

Riff3a:
e|----------------------------------|
B|----------------------------------|
G|----------------------------------|
D|-1--1--0---000-000-000-000-000-00-|
A|-1--1--0---000-000-000-000-000-00-|
D|-1--1--0---000-000-000-000-000-00-|
             ... ... ... ... ... ..

Riff3b:
e|---------------------------------|
B|---------------------------------|
G|---------------------------------|
D|-1--1--0---000-000-000-003---5---|
A|-1--1--0---000-000-000-003---5---|
D|-1--1--0---000-000-000-003---5---|
             ... ... ... ..

Riff4a:
e|-----------------------------------------------------------------|
B|-----------------------------------------------------------------|
G|-----------------------------------------------------------------|
D|-5-6-5-6-5-6-5-6-5-6-5-6-5--3--1-0-------0---0---0-------0---0---|
A|-5-6-5-6-5-6-5-6-5-6-5-6-5--3--1-0-------0---0---0-------0---0---|
D|-5-6-5-6-5-6-5-6-5-6-5-6-5--3--1-0-------0---0---0-------0---0---|
                                           .   .           .   .

Riff4b:
e|-----------------------------------------------------------------|
B|-----------------------------------------------------------------|
G|-----------------------------------------------------------------|
D|-5-6-5-6-5-6-5-6-5-6-5-6-5--3--1---------0-----------------------|
A|-5-6-5-6-5-6-5-6-5-6-5-6-5--3--1---------0-----------------------|
D|-5-6-5-6-5-6-5-6-5-6-5-6-5--3--1---------0-----------------------|


Riff1a x7
Riff1b x1

Riff2  x4
Riff3a x3
Riff3b x1

Riff1a x7
Riff1b x1

Riff2  x4
Riff3a x3
Riff3b x1

Riff1a x7
Riff1b x1
Riff1a x7
Riff1b x1

Riff4a x4

Riff3a x3
Riff3b x1

Riff1a x7
Riff1b x1
Riff1a x7
Riff1b x1

Riff4a x1
Riff4b x1
Tap to rate this tab
# A B C D E F G H I J K L M N O P Q R S T U V W X Y Z