Song name
# A B C D E F G H I J K L M N O P Q R S T U V W X Y Z

Elle Milano - My Brother The Astronaut tab

Here is the main part, might not be in the right place.
e|----------------------------|
B|----------------------------|
G|----------------------------|
D|-8-8--5-5--4-4---7-7---7-7--|
A|-6-6--3-3--2-2---5-5---5-5--|
E|----------------------------|

Here’s the solo part that comes in on 1.58
e|----12------------12------------12---------------------|
B|-12----12------12----12------12----12------11-11-11-9--|
G|-14-------14---14-------14---14-------14---------------|
D|-------------------------------------------------------|
A|-------------------------------------------------------|
E|-------------------------------------------------------|
Tap to rate this tab
# A B C D E F G H I J K L M N O P Q R S T U V W X Y Z