Song name
# A B C D E F G H I J K L M N O P Q R S T U V W X Y Z

Elle Milano - Laughing All The Way To The Plank tab

-------------------------------------------------------------------------------
			     Laughing All The Way To The Plank - Elle Milano
-------------------------------------------------------------------------------
Tabbed by: Ed Cresdee
Email: cresscress@hotmail.com

Intro - do this 4 times
e|---------------------------------------------------------------------------|
B|---------------------------------------------------------------------------|
G|------3---------2----------------------------------------------------------|
D|-5-5--3--4-4-4--2----------------------------------------------------------|
A|-5-5--1--4-4-4--0----------------------------------------------------------|
E|-3-3-----2-2-2-------------------------------------------------------------|

Verse - do this twice
e|---------------------------------------------------------------------------|
B|---------------------------------------------------------------------------|
G|---------------------------------8-8-8-8-8-8-8-8---------------------------|
D|-5-5-5-5-5-5-5-5-8-8-8-8-8-8-8-8-8-8-8-8-8-8-8-8--7-8-7-5------------------|
A|-5-5-5-5-5-5-5-5-8-8-8-8-8-8-8-8-6-6-6-6-6-6-6-6--7-8-7-5------------------|
E|-3-3-3-3-3-3-3-3-6-6-6-6-6-6-6-6------------------5-6-5-3------------------|

Chorus - to this twice
e|---------------------------------------------------------------------------|
B|---------------------------------------------------------------------------|
G|---------------------------------8-8-8-8-8-8-8-8---------------------------|
D|-5-5-5-5-5-5-5-5-8-8-8-8-8-8-8-8-8-8-8-8-8-8-8-8--8-8--8-8--8-8-8----------|
A|-5-5-5-5-5-5-5-5-8-8-8-8-8-8-8-8-6-6-6-6-6-6-6-6--8-8--8-8--8-8-8----------|
E|-3-3-3-3-3-3-3-3-6-6-6-6-6-6-6-6------------------6-6--6-6--6-6-6----------|

Then do the intro again - 4 times
e|---------------------------------------------------------------------------|
B|---------------------------------------------------------------------------|
G|------3---------2----------------------------------------------------------|
D|-5-5--3--4-4-4--2----------------------------------------------------------|
A|-5-5--1--4-4-4--0-----------------------------------------------------------|
E|-3-3-----2-2-2-------------------------------------------------------------|


Verse - do this twice
e|---------------------------------------------------------------------------|
B|---------------------------------------------------------------------------|
G|---------------------------------8-8-8-8-8-8-8-8---------------------------|
D|-5-5-5-5-5-5-5-5-8-8-8-8-8-8-8-8-8-8-8-8-8-8-8-8--7-8-7-5------------------|
A|-5-5-5-5-5-5-5-5-8-8-8-8-8-8-8-8-6-6-6-6-6-6-6-6--7-8-7-5------------------|
E|-3-3-3-3-3-3-3-3-6-6-6-6-6-6-6-6------------------5-6-5-3------------------|

Chorus - to this twice
e|---------------------------------------------------------------------------|
B|---------------------------------------------------------------------------|
G|---------------------------------8-8-8-8-8-8-8-8---------------------------|
D|-5-5-5-5-5-5-5-5-8-8-8-8-8-8-8-8-8-8-8-8-8-8-8-8--x-x--x-x--x-x-x----------|
A|-5-5-5-5-5-5-5-5-8-8-8-8-8-8-8-8-6-6-6-6-6-6-6-6--x-x--x-x--x-x-x----------|
E|-3-3-3-3-3-3-3-3-6-6-6-6-6-6-6-6------------------x-x--x-x--x-x-x----------|

do this next part 4 times
e|---------------------------------------------------------------------------|
B|---------------------------------------------------------------------------|
G|---------------------------------------------------------------------------|
D|-12-12-12-12-7-7-7-7-8-8-8-8-8-8-8-8---------------------------------------|
A|-12-12-12-12-7-7-7-7-8-8-8-8-8-8-8-8---------------------------------------|
E|-10-10-10-10-5-5-5-5-6-6-6-6-6-6-6-6---------------------------------------|

then there is a little keyboard solo, it goes a bit like this
e|-18-17-----22-18-17--------------------------------------------------------|
B|---------------------------------------------------------------------------|
G|---------------------------------------------------------------------------|
D|---------------------------------------------------------------------------|
A|---------------------------------------------------------------------------|
E|---------------------------------------------------------------------------|

Back into the 
e|---------------------------------------------------------------------------|
B|---------------------------------------------------------------------------|
G|---------------------------------------------------------------------------|
D|-7-8-7-5-------------------------------------------------------------------|
A|-7-8-7-5-------------------------------------------------------------------|
E|-5-6-5-3-------------------------------------------------------------------|

Chorus
e|---------------------------------------------------------------------------|
B|---------------------------------------------------------------------------|
G|---------------------------------8-8-8-8-8-8-8-8---------------------------|
D|-5-5-5-5-5-5-5-5-8-8-8-8-8-8-8-8-8-8-8-8-8-8-8-8--8-8--8-8--8-8-8----------|
A|-5-5-5-5-5-5-5-5-8-8-8-8-8-8-8-8-6-6-6-6-6-6-6-6--8-8--8-8--8-8-8----------|
E|-3-3-3-3-3-3-3-3-6-6-6-6-6-6-6-6------------------6-6--6-6--6-6-6----------|

e|---------------------------------------------------------------------------|
B|---------------------------------------------------------------------------|
G|---------------------------------8-8-8-8-8-8-8-8---------------------------|
D|-5-5-5-5-5-5-5-5-8-8-8-8-8-8-8-8-8-8-8-8-8-8-8-8--x-x--x-x--x-x-x----------|
A|-5-5-5-5-5-5-5-5-8-8-8-8-8-8-8-8-6-6-6-6-6-6-6-6--x-x--x-x--x-x-x----------|
E|-3-3-3-3-3-3-3-3-6-6-6-6-6-6-6-6------------------x-x--x-x--x-x-x----------|

do this next part 4 times
e|---------------------------------------------------------------------------|
B|---------------------------------------------------------------------------|
G|---------------------------------------------------------------------------|
D|-12-12-12-12-7-7-7-7-8-8-8-8-8-8-8-8---------------------------------------|
A|-12-12-12-12-7-7-7-7-8-8-8-8-8-8-8-8---------------------------------------|
E|-10-10-10-10-5-5-5-5-6-6-6-6-6-6-6-6---------------------------------------|

Outro - 4 times
e|---------------------------------------------------------------------------|
B|---------------------------------------------------------------------------|
G|------3---------2----------------------------------------------------------|
D|-5-5--3--4-4-4--2----------------------------------------------------------|
A|-5-5--1--4-4-4--0----------------------------------------------------------|
E|-3-3-----2-2-2-------------------------------------------------------------|

==============================================================================
Tap to rate this tab
# A B C D E F G H I J K L M N O P Q R S T U V W X Y Z