Song name
# A B C D E F G H I J K L M N O P Q R S T U V W X Y Z

Elle Milano - Meanwhile In Hollywood tab

Elle Milano - Meanwhile in Hollywood...

Tabbed by: Ed Cresdee
Email: cresscress@hotmail.com

Intro

e|---------------------------------------------------------------------|
B|---------------------------------------------------------------------|
G|--6----3--------------6----6----3--------------6---------------------|
D|--6----3----3----6----6----6----3----3----6----6---------------------|
A|--4----1----3----6----4----4----1----3----6----4---------------------|
E|------------1----4-------------------1----4--------------------------|

Chorus
e|---------------------------------------------------------------------|
B|---------------------------------------------------------------------|
G|--6-6--6-6-6----3-3-3-3-3--------------------------------------------|
D|--6-6--6-6-6----3-3-3-3-3--6-6-6-6-----------------------------------|
A|--4-4--4-4-4----1-1-1-1-1--6-6-6-6-----------------------------------|
E|---------------------------4-4-4-4-----------------------------------|

high-pitched bit between chorus and verse
e|---------------------------------------------------------------------|
B|--6-6-6-6-7-7-7-7----------------------------------------------------|
G|--6-6-6-6-7-7-7-7----------------------------------------------------|
D|--4-4-4-4-5-5-5-5----------------------------------------------------|
A|---------------------------------------------------------------------|
E|---------------------------------------------------------------------|

Verse
e|-------------------------------------------------------------------------|
B|-------------------------------------------------------------------------|
G|-6-6-6-6-6-6-6-6-3-3-3-3-3-3-3-3---------------------------------6-6-6-6-|
D|-6-6-6-6-6-6-6-6-3-3-3-3-3-3-3-3-3-3-3-3-3-3-3-3-6-6-6-6-6-6-6-6-6-6-6-6-|
A|-4-4-4-4-4-4-4-4-1-1-1-1-1-1-1-1-3-3-3-3-3-3-3-3-6-6-6-6-6-6-6-6-4-4-4-4-|
E|---------------------------------1-1-1-1-1-1-1-1-4-4-4-4-4-4-4-4---------|

Break
e|---------------------------------------------------------------------|
B|---------------------------------------------------------------------|
G|--6-6-6-6-6-6-6-6-10-10-10-10-10-13-13-13-13-------------------------|
D|--6-6-6-6-6-6-6-6-10-10-10-10-10-13-13-13-13-------------------------|
A|--4-4-4-4-4-4-4-4-8--8--8--8--8--11-11-11-11-------------------------|
E|---------------------------------------------------------------------|

Outro
e|---------------------------------------------------------------------|
B|---------------------------------------------------------------------|
G|--6-6--6-6-6----3-3-3-3-3--------------------------------------------|
D|--6-6--6-6-6----3-3-3-3-3--6-6-6-6-----------------------------------|
A|--4-4--4-4-4----1-1-1-1-1--6-6-6-6-----------------------------------|
E|---------------------------4-4-4-4-----------------------------------|
Tap to rate this tab
 
# A B C D E F G H I J K L M N O P Q R S T U V W X Y Z