Song name
# A B C D E F G H I J K L M N O P Q R S T U V W X Y Z

Ellegarden - Mr Feather tab

ellegarden - mr. feather

this is my first tab, so bare with me.

standard tuning (EADGBe)

they are basically bar chords.
 you will have to get the rhythm from the song itself.

  (part a)		                                        |		(part b)
  g               d        a                                 |          g           d            a
-------------------------------------------------------------------------------------|
-------------------------------------------------------------------------------------|
--------------7---------------------------------------7------------------------------|
----5---------7-------7-------7------------5---------7-------7--------7----9---7-----|
----5------5----------7-------7------------5-------5---------7--------7----9---7-----|
3-------------------5-------5-------------3-----------------5------5-----------------|

play (part a) x2 for intro
play (part a) & (part b) x4 for verse


chorus

----------------------------------------------------------------------------|
----------------------------------------------------------------------------|
------5---------------------------------------7--------9--------------------|
------5---------------------------------------7--------9--------------------|
------3---------------------------------------5--------7--------------------|

                  give me something that i understand


verse 2
play (part a) & (part b) x3 and then (part a) x2

pre-chorus
-------|
-------|
-------|   repeat into chorus
-4-----|
-4-----|
-2-----|


i cant seem to figure out the bridge but the rest is pretty much the same.
Tap to rate this tab
# A B C D E F G H I J K L M N O P Q R S T U V W X Y Z