Song name
# A B C D E F G H I J K L M N O P Q R S T U V W X Y Z

Ellegarden - Make A Wish Live tab

Help us improve GuitareTab! Take a short survey!
This should be pretty accurate to the Live version of "Make A Wish". Enjoy!




    -Intro-
e|------0---0--------------------------------------------------0-|
B|-----0-----0------------------------------------------------0--|
G|----1-------1----4---4---6---6-----------------------------1---|
D|---2---------2--4-4-4-4-6-6-6-6--6---6---7---7---9---9----2----|
A|--2-----------2----2---4---4----6-6-6-6-7-7-7-7-9-9-9-9--2-----|
E|-0-----------------------------4---4---5---5---7---7----0------|
    
    -Vers- x2
e|-0--------4--------0--------2--------0-------4--------4--------|
B|-0--------5--------2--------4--------2-------4--------5--------|
G|-1--------6--------2--------4--------2-------4--------6--------|
D|-2--------6--------2--------4--------2-------6--------6--------|
A|-2--------4--------0--------2--------0-------6--------4--------|
E|-0--------4--------0--------2--------0-------4--------4--------|
   x8       x8       x8       x6       x2      x8       x8

e|-0--------2--------|
B|-2--------4--------|
G|-2--------4--------|
D|-2--------4--------|
A|-0--------2--------|
E|-0--------2--------|
   x8       x8 

    -Chorus- x2 Calm first time and FORCEFUL the second time!
e|-0-------2--------4--------4-------0-------2--------0--------2|
B|-0-------4--------5--------4-------2-------4--------0--------4|
G|-1-------4--------6--------4-------2-------4--------1--------4|
D|-2-------4--------6--------6-------2-------4--------2--------4|
A|-2-------2--------4--------6-------0-------2--------2--------2|
E|-0-------2--------4--------4-------0-------2--------0--------2|
   x8      x8       x8       x8      x8      x8       x8      x8

Related for Make A Wish Live tab