Song name
# A B C D E F G H I J K L M N O P Q R S T U V W X Y Z

Ellie Goulding - Wish I Stayed tab

 e|----------------------------------------------------------------|
 B|-------2------2------2------2------2-------2------2--2--2-------|
 G|-------1------1------1------1------1-------1------1--1--1-------|
 D|----------------------------------------------------------------|
 A|---0-------0-------0------0-------0------0------0---------------|
 E|----------------------------------------------------------------|

 e|-------0------0------0------0------0-------0------0--0--0-------|
 B|-------2------2------2------2------2-------2------2--2--2-------|
 G|----------------------------------------------------------------|
 D|----2-------2------2------2------2-------2------2---------------|
 A|----------------------------------------------------------------|
 E|----------------------------------------------------------------|


then repeat throughout

its my first tab EVER but i love ellie goulding and there isn't a tab for this yet so 
i'd have a hack at it, be nice :)
Tap to rate this tab
 
# A B C D E F G H I J K L M N O P Q R S T U V W X Y Z