Song name
# A B C D E F G H I J K L M N O P Q R S T U V W X Y Z

Ellie Goulding - Wish I Stayed tab

-------------------------------------------------------------------------------
			     Wish I Stayed (Intro) - Ellie Goulding
-------------------------------------------------------------------------------
Tabbed by: "The Writer" MF
Email: remoretro@gmail.com

Tuning:

e|-----------------------------------------|
B|-----9----9----9----9----9----9----995---|
G|-----6----6----6----6----6----6----666---|
D|-----------------------------------------|
A|--0----0----0----0----0----0----0--------|
E|-----------------------------------------|

e|-----------------------------------------|
B|-----5----5----5----5----5----5----555---|
G|-----6----6----6----6----6----6----666---|
D|-----------------------------------------|
A|--4----4----4----4----4----4----4--------|
E|-----------------------------------------|



************************************

| /   slide up
| \   slide down
| h   hammer-on
| p   pull-off
| ~   vibrato
| +   harmonic
| x   Mute note
| b   Bend
| pb  Pre-bend
| br  Bend release
| pbr Pre-bend release
| brb Bend release bend

************************************
Tap to rate this tab
# A B C D E F G H I J K L M N O P Q R S T U V W X Y Z