Guitaretab - guitar tabs
Song name
# A B C D E F G H I J K L M N O P Q R S T U V W X Y Z

Ellie Goulding - Guns And Horses tab

Ellie Goulding

Guns and Horses

Strumming pattern can be figured out

Intro/Verse

E|-----0-------0----|
B|-----8-------8----|
G|-----9-------0----|
D|-----10------9----|
A|---0---------10---|
E|------------0-----|

" left my house..."

Bridge

E|-0----3----0---|
B|-1----0----0---|
G|-0----0----0---|
D|-2----0----0---|
A|-3----2----4---|
E|------3----5---|

Chorus/outro

E|--------------|--0--0---0----0-|
B|--------------|--0--0---0----0-|
G|--------------|--0--0---11---0-|
D|--------------|--9--12--12---12|
A|--------------|--6--12--10---12|
E|-0-0-0-0-0----|--7--10--0----10|

             OR
[ Tab from: http://www.guitaretab.com/e/ellie-goulding/228030.html ]
E|--------------|--0--0---0----0-|
B|--------------|--0--0---0----0-|
G|--------------|--8--14--11---14|
D|--------------|--9--12--12---12|
A|--------------|--6--12--10---12|
E|-0-0-0-0-0----|--7--10--0----10|

The first one is right but the second sounds nice too


Breakdown

E--0----0----0----|--0----0----0----|
B--1----3----1----|--1----3----0----|
G--0----0----2----|--0----0----0----|
D--2----4----2----|--2----4----2----|
A--3----5----0----|--3----5----2----|
E-----------------|------------0----|

Verse
Bridge
Chorus
Verse
Bridge
Chorus
Breakdown
Chorus/outro

It's all in there just needs to be figured out.  This is based on an acoustic
i saw, not the album version, havn't heard the album version in a while so not sure how 
fits in.

Laters on the Menjay!
Related for Guns And Horses tab
Guns And Horses chords by Ellie Goulding