Ellie Goulding - Wish I Stayed tab

PLEASE READ:hi. heres my version of wish i stayed.i play it with capo on seventh fret 
you can probably play it on sixth.gentle plucking sounds good at the intro and verses, and 
at the chorus... hope you like :D

standard tuning.

intro:
------------------------------------------|
--------2---2---2---2---2---2---2-2-2-----|
------------------------------------------|
------2---2---2---2---2---2---------------|
------------------------------------------|
------------------------------------------|

------------------------------------------|
------------------------------------------|
--------2---2---2---2---2---2---2-2-2-----|
------2---2---2---2---2---2---------------|
------------------------------------------|
------------------------------------------|


verses:"why can't we speak....."
------------------------------------------|
--------2---2---2---2---2---2-------------|
------2---2---2---2---2---2---------------|
------------------------------------------|
------------------------------------------|
------------------------------------------|

"agree on....."
------------------------------------------|
------------------------------------------|
--------2---2---2---2---2---2---2-2-2-----|
------2---2---2---2---2---2---------------|
------------------------------------------|
------------------------------------------|

repeat that through the other verses and just strum it on the chorus REMEMBER!: it 
be played with capo on seventh or sixth fret...

just repeat that through the whole song. if theres any mistakes please fix them and post 
"FIXED" version in a tab. remember its my version so it might not match the song completely...

hope you like :D byes!
Tap to rate this tab
 
# A B C D E F G H I J K L M N O P Q R S T U V W X Y Z