Song name
# A B C D E F G H I J K L M N O P Q R S T U V W X Y Z

Ellie Goulding - Under The Sheets tab

Artist: Ellie Goulding
Song: Under The Sheets
Album: Lights
Tabbed by: Tiadoro



The Tabs I've seen weren't 100% right. Hope my Tab comes closer.

Enjoy it.


Intro:

e|-1-1---1-1---|-1-1---3-3--|
B|-3-3---3-3---|-3-3---3-3--|
G|-2-2---2-2---|-3-3---3-3--|
D|-0-0---0-0---|-3-3---5-5--|
A|-------------|-1-1---5-5--|
E|-------------|-------3-3--|



Verse:

e|-1-1---1-1---|-1-1---1-1--|--1-1---1-1--|--3-3---5-5--|
B|-3-3---3-3---|-3-3---3-3--|--3-3---3-3--|--3-3---6-6--|
G|-2-2---2-2---|-2-2---2-2--|--3-3---3-3--|--3-3---7-7--|
D|-0-0---0-0---|-0-0---0-0--|--3-3---3-3--|--5-5---7-7--|
A|-------------|------------|--1-1---1-1--|--5-5---5-5--|
E|-------------|------------|-------------|--3-3--------|



Pre-Chorus: "I see you in a fight you lost..."

e|-----------------|-----------------|
B|---------5-5-5-5-|-6-6-6-6-6-6-6-6-|
G|-7-7-7-7-5-5-5-5-|-7-7-7-7-7-7-7-7-|
D|-8-8-8-8-5-5-5-5-|-7-7-7-7-7-7-7-7-|
A|-8-8-8-8-3-3-3-3-|-5-5-5-5-5-5-5-5-|
E|-6-6-6-6---------|-----------------|


Chorus:

e|-6-6-6-6-6-6-6-6-|-5-5-5-5-5-5-5-5-|-3-3-3-3-3-3-3-3-|-5-5-5-5-5-5-5-5-|
B|-6-6-6-6-6-6-6-6-|-5-5-5-5-5-5-5-5-|-3-3-3-3-3-3-3-3-|-5-5-5-5-5-5-5-5-|
G|-7-7-7-7-7-7-7-7-|-5-5-5-5-5-5-5-5-|-3-3-3-3-3-3-3-3-|-5-5-5-5-5-5-5-5-|
D|-8-8-8-8-8-8-8-8-|-7-7-7-7-7-7-7-7-|-5-5-5-5-5-5-5-5-|-7-7-7-7-7-7-7-7-|
A|-8-8-8-8-8-8-8-8-|-7-7-7-7-7-7-7-7-|-5-5-5-5-5-5-5-5-|-7-7-7-7-7-7-7-7-|
E|-6-6-6-6-6-6-6-6-|-5-5-5-5-5-5-5-5-|-3-3-3-3-3-3-3-3-|-5-5-5-5-5-5-5-5-|


e|-6-6-6-6-6-6-6-6-|-----------------|-----------------|-----------------|
B|-6-6-6-6-6-6-6-6-|-5-5-5-5-5-5-5-5-|-6-6-6-6-6-6-6-6-|-6-6-6-6-6-6-6-6-|
G|-7-7-7-7-7-7-7-7-|-5-5-5-5-5-5-5-5-|-7-7-7-7-7-7-7-7-|-7-7-7-7-7-7-7-7-|
D|-8-8-8-8-8-8-8-8-|-5-5-5-5-5-5-5-5-|-7-7-7-7-7-7-7-7-|-7-7-7-7-7-7-7-7-|
A|-8-8-8-8-8-8-8-8-|-3-3-3-3-3-3-3-3-|-5-5-5-5-5-5-5-5-|-5-5-5-5-5-5-5-5-|
E|-6-6-6-6-6-6-6-6-|-----------------|-----------------|-----------------|


Interlude: = Verse

Verse 2 = Verse

Chorus:

Bridge:
                               *  *  *  *          *  *
e|-5--5--5--5--|-3--3--3--3--|-------------|-1--1--------|
B|-6--6--6--6--|-5--5--5--5--|-------------|-3--3--------|
G|-7--7--7--7--|-5--5--5--5--|-4--4--4--4--|-3--3--2--2--|
D|-7--7--7--7--|-5--5--5--5--|-4--4--4--4--|-3--3--2--2--|
A|-5--5--5--5--|-3--3--3--3--|-2--2--2--2--|-1--1--0--0--|
E|-------------|-------------|-------------|-------------|


*= I don't know the exact Chords but this works too.


Chorus

That's it.

Hope you like it.

Please Rate it.

Bye
Tap to rate this tab
 
# A B C D E F G H I J K L M N O P Q R S T U V W X Y Z