Ellie Goulding - Wish I Stayed Acoustic tab

tabbed by corine andrews
http://www.youtube.com/watch?v=iasph5zaDT4


Capo 4


e-----0-----0-----0-----0-----0-----0-----00----|
B-------------------------------------------1---|
G-----2-----2-----2-----2-----2-----2-----222---|
D-----------------------------------------------|
A-----------------------------------------------|
E---1-----1-----1-----1-----1-----1-----1-------|

 -----------------------------------------------|
 -----1-----1-----1-----1-----1-----1-----111---|
 -----2-----2-----2-----2-----2-----2-----222---|
 -----------------------------------------------|
 ---0-----0-----0-----0-----0-----0-----0-------|
 -----------------------------------------------|


          C
With that skipping rope, the trampoline

The crafty smoke that made us choke
    Am
But we didn't give up hope
              C
It's just the simple ways, of getting paid
                                   Am
The carelessnes of running away, I wish I stayed


C           C          C     C
I don't own my clothes but i own my mind
         Am              Am
And it's not what you've lost
         Am       Am
But it's what you find.
Tap to rate this tab
 
# A B C D E F G H I J K L M N O P Q R S T U V W X Y Z