Song name
# A B C D E F G H I J K L M N O P Q R S T U V W X Y Z

Ellie Goulding - Your Song tab

Hey, this is my first tab, it's basically the same chords as another tab submitted 
already, but a finger picking version I made up
It's pretty much the same thing over and over but changing chords as you go along
Enjoy :)

Intro: Em

e----0----|
B--0------|
G-----0-0-|
D---2--2--|
A-2-------|
E---------|X2

VERSE 1

    Em       G       C      G
e----0-------3-------0-------3----|
B--0-------0-------1-------0------|
G-----0-0-----0-0-----0-0-----0-0-|
D---2--2----0--0----2--2----0--0--|
A-2-------2-------3-------2-------|
E---------------------------------|x3

     G        Am     C        D
e----3-------0-------0-------2------2----|
B----------1-------1-------3-------------|
G--0--0-0-----2-2-----0-0-----2-2-2--2-2-|
D-0-0--0----2--2----2--2----0--0-0-0--0--|
A---------0-------3-------0--------------|
E----------------------------------------|

VERSE 2
Same as VERSE 1

CHORUS

Same pattern, different chords:

Em , Am , C ,
D ,Em , Am ,C ,

Em , G , A , C,
G, Am, C, D

VERSE 3
Same as VERSE 1 and VERSE 2

Bridge
I didn't really pay attention to this part , because it's basically this pattern but you 
can do as many plucks and as fast as you want.
   G     C       Am    Em

e-------------------------------|
B--0-0-1-1-1-1-1-1-1-1-0-0-0-0--|
G-------------------------------|
D-------------------------------|
A-2-2-3-3-3-3-0-0-0-0-2-2-2-2---|
E-------------------------------| x4


CHORUS

And you're done!
You should do a bit of tweaking if you want, especially at the end of the last chorus 
where you can pluck only one string, it's up to you :)
Tap to rate this tab
 
# A B C D E F G H I J K L M N O P Q R S T U V W X Y Z