Song name
# A B C D E F G H I J K L M N O P Q R S T U V W X Y Z

Ellie Goulding - Burn tab

(p) = Pull Off

BASED ON THE COVER FOUND AT: http://www.youtube.com/watch?v=yZlyX9DAQ04

CAPO 5TH FRET - KEY SUITABLE FOR MALE VOCALS

VERSE: (REPEAT BELOW)
        A MIN    |     F MAJ     |   C MAJOR   |   G SUS
E|--------------------------------------------------------------|
B|--1----1---1-p0---1-----1---------1-----1------0----0---------|
G|--2---------------2-----------2---0---------0--0----------0---|
D|--------------------------------------------------------------|
A|--0--0---0------------------------3--3----3-------------------|
E|------------------1--1-----1-------------------3--3----3------|

        A MIN    |     F MAJ     |   C MAJOR   |   G SUS
E|--------------------------------------------------------------|
B|--1----1---1-p0---1-----1---------1-----1------0--------------|
G|--2---------------2-----------2---0---------0--0--------------|
D|--------------------------------------------------------------|
A|--0--0---0------------------------3--3----3-------------------|
E|------------------1--1-----1-------------------3--------------|

Prechorus: (REPEAT)

        A MIN    |     F MAJ     |   C MAJOR   |   G MAJ
E|-------0----------------1---------------0------------3--------|
B|--1---------------1---------------1---------1--3--------------|
G|--2---------2-----2-----------2---0------------0----------0---|
D|--------------------------------------------------------------|
A|--0--0---0------------------------3--3----3-------------------|
E|------------------1--1-----1-------------------3--3----3------|

        A MIN    |     F MAJ     |   C MAJOR   |   G MAJ
E|-------0----------------1---------------0------3--------------|
B|--1---------------1---------------1---------1--3--------------|
G|--2---------2-----2-----------2---0------------0--------------|
D|-----------------------------------------------0--------------|
A|--0--0---0------------------------3--3----3----2--------------|
E|------------------1--1-----1-------------------3--------------|

CHORUS: REPEAT BELOW CHORDS, SEE VIDEO FOR STRUMMING PATTERN

        A MIN    |     F MAJ     |   C MAJOR   |   G MAJ
E|--0---------------1---------------0------------3--------------|
B|--1---------------1---------------1------------3--------------|
G|--2---------------2---------------0------------0--------------|
D|--2---------------3---------------2------------0--------------|
A|--0---------------3---------------3------------2--------------|
E|--X---------------1---------------X------------3--------------|
Tap to rate this tab
 
# A B C D E F G H I J K L M N O P Q R S T U V W X Y Z