Song name
# A B C D E F G H I J K L M N O P Q R S T U V W X Y Z

Ellie Holcomb - Dont Forget His Love Psalm 103 tab

Tablature & Chords

Standard Tuning
Capo 3rd

INTRO

   (Em7)   (D6)   (Cadd2)  (G)
e|-----------------------------------|
B|------------------1---1---0---0----|
G|--0---0---2---2--------------------|
D|----0---0---0---0---0---0---0---0--|
A|----------0-------3----------------|
E|--0-----------------------3--------|

   (Em7)   (D6)    (G)
e|----------------------------------|
B|----------------------------------|
G|--0---0---2---2---0---0---0---0---|
D|----0---0---0---0---0---0---0---0-|
A|----------0-----------------------|
E|--0---------------3---------------|


VERSE

   (Em7)   (D6)   (Cadd2)  (G)     (Em7)   (D6)
e|---------------------------------------------------|
B|------------------1---1---0---0--------------------|
G|--0---0---2---2-------------------0---0---2---2----|
D|----0---0---0---0---0---0---0---0---0---0---0---0--|
A|----------0-------3-----------------------0--------|
E|--0-----------------------3-------0----------------|

And then alternate between endings

1st ending
   (G)
e|------------------|
B|--0---0---0---0---|
G|------------------|
D|----0---0---0---0-|
A|------------------|
E|--3---------------|

2nd ending
   (G)
e|------------------|
B|------------------|
G|--0---0---0---0---|
D|----0---0---0---0-|
A|------------------|
E|--3---------------|


INTERLUDE

   (Em7)   (D6)   (Cadd2)  (G)    (Em7)    (D6)    (G)
e|------------------0---0--------------------------------------------|
B|--0---0---0---0---1---1---0---0---0----0---0---0---0---0---0---0---|
G|--0---0---2---2-------------------0----0---2---2-------------------|
D|----0---0---0---0---0---0---0---0----0---0---0---0---0---0---0---0-|
A|----------0-------3------------------------0-----------------------|
E|--0-----------------------3-------0----------------3---------------|

(Em7)   (D6)   (Cadd2)  (G)    (Em7)    (D6)    (G)
e|------------------0---0--------------------------------------------|
B|--0---0---0---0---1---1---0---0---0----0---0---0-------------------|
G|--0---0---2---2-------------------0----0---2---2---0---0---0---0---|
D|----0---0---0---0---0---0---0---0----0---0---0---0---0---0---0---0-|
A|----------0-------3------------------------0-----------------------|
E|--0-----------------------3-------0----------------3---------------|


OUTRO (last 2 bars of the song):

   (Em7)   (D6)    (G)
e|--------------------------3---|
B|------------------------------|
G|--0---0---2---2---0---0-------|
D|----0---0---0---0---0---0-----|
A|----------0-------------------|
E|--0---------------3-----------|


LYRICS (Psalm 103)
Praise the Lord, O my soul
Oh and all my inmost being
Praise the Lord, O my soul
Donít forget His love

Who forgives all of your sins
And who heals all your diseases
Who redeems your life from the pit
And who crowns you with His love

Who satisfies your desires
Oh with good and lovely things
Who renews your heart
Like a flight on eagles wings

Praise the Lord, O my soul
Oh and all my inmost being
Praise the Lord, O my soul
Donít forget His love
Tap to rate this tab
# A B C D E F G H I J K L M N O P Q R S T U V W X Y Z