Guitaretab - guitar tabs
Song name
# A B C D E F G H I J K L M N O P Q R S T U V W X Y Z

Elliot Friedman - Endless Clouds tab

Elliot Friedman - "Endless Clouds" - Tablature.

http://www.elliotfriedman.com/

- Capo on fret 2
- Standard tuning - E-A-D-G-B-E
- () = optional notes
- NOTE: Lyrics mainly for reference.


1ST & 2ND VERSE:

E|--0--------------0---------------0---------------0----|
B|-----------0---------------0---------------0----------|
G|-------9-------9-------8-------8-------6-------6------|
D|-----9---9---9---9---9---9---9---7---7---7---7---7----|
A|--7---------------------------------------------------|
E|------------------------------------------------------|
        Here's  a   story.

E|--0-------------------------------0-------------------|
B|------------------0-------------------------------0---|
G|------------6---------------6---------------2---------|
D|--------6-------6-------6-------6-------2-------2-----|
A|--4---4---4---4---4---4---4---4---0---0---0---0---0---|
E|------------------------------------------------------|
    It   takes    me   back   to   where  I  came  from.

E|--0--------------0---------------0---------------0----|
B|-----------0---------------0---------------0----------|
G|-------9-------9-------8-------8-------6-------6------|
D|-----9---9---9---9---9---9---9---7---7---7---7---7----|
A|--7---------------------------------------------------|
E|------------------------------------------------------|
       In  all  its  glory.

E|--0-------------------------------0-------------------|
B|------------------0-------------------------------0---|
G|------------6---------------6---------------2---------|
D|--------6-------6-------6-------6-------2-------2-----|
A|--4---4---4---4---4---4---4---4---0---0---0---0---0---|
E|------------------------------------------------------|
    It   shows   me   where  and   how  I   went  wrong.


E|---------------0-------------------|
B|-------------------------------0---|
G|---------2---------------2---------|
D|-----2-------2-------2-------2-----|
A|---0---0---0---0---0---0---0---0---|
E|-----------------------------------|


X 2, then:

E|---------------0-------------------------------0-------------------|
B|-------------------------------0-------------------------------0---|
G|---------2---------------2---------------2---------------2---------|
D|-----2-------2-------2-------2-------2-------2-------2-------2-----|
A|---0---0---0---0---0---0---0---0---0---0---0---0---0---0---0---0---|
E|-------------------------------------------------------------------|

E|---------------|
B|---------------|
G|---------------|
D|-----2---2-----|
A|---0---0---0---|
E|---------------|


1ST CHORUS:

E|--0-------------------------------0---------------------------------|
B|------------------0-------------------------------0-----------------|
G|------------6---------------6---------------2---------------2-------|
D|--------6-------6-------6-------6-------2-------2-------2-------2---|
A|--4---4---4---4---4---4---4---4---0---0---0---0---0---0---0---0-----|
E|--------------------------------------------------------------------|
          All these endless clouds are    here to stay   and I am

E|--0-------------------------------0--------------------------------|
B|------------------0-------------------------------0----------------|
G|------------1---------------1---------------1----------------------|
D|--------2-------2-------2-------2-------2-------2-------2---2------|
A|------2---2---2---2---2---2---2-------2---2---2---2---2---2---2----|
E|--0-------------------------------0--------------------------------|
    Sorry.                     I'm sorry.


X 2, then at the end of the repeat, miss out/remove these last 5 notes:

E|---------------|
B|---------------|
G|---------------|
D|-----2---2-----|
A|---2---2---2---|
E|---------------|


2ND & 3RD CHORUS:

See 1ST CHORUS but X 4

Then at the very end of the chorus, miss out the last 5 notes (shown above).

MIDDLE 8:
[ Tab from: http://www.guitaretab.com/e/elliot-friedman/97642.html ]
E|--0-------------------------------0---------------------------------|
B|------------------0-------------------------------0-----------------|
G|------------5---------------5---------------5---------------5-------|
D|--------5-------5-------5-------5-------5-------5-------5-------0---|
A|--3---3---3---3---3---3---3---3---3---3---3---3---3---3---3---3-----|
E|--------------------------------------------------------------------|
          But don't get me wrong, I                Learned a lot

E|--0-------------------------------0---------------------------------|
B|------------------0-------------------------------0-----------------|
G|------------2---------------2---------------2---------------0-------|
D|--------2-------2-------2-------2-------2-------2-------2-------2---|
A|--0---0---0---0---0---0---0---0---0---0---0---0---0---0---0---0-----|
E|--------------------------------------------------------------------|
..Through          this


X 3, then:

E|--0-------------------------------0---------------------------------|
B|------------------0-------------------------------0-----------------|
G|------------5---------------5---------------5---------------5-------|
D|--------5-------5-------5-------5-------5-------5-------5-------5---|
A|--3---3---3---3---3---3---3---3---3---3---3---3---3---3---3---3-----|
E|--------------------------------------------------------------------|
        In fact without that time, I                Wouldn't know  all

E|--0-------------------------------0---------------------------------|
B|------------------0-------------------------------0-----------------|
G|------------4---------------4---------------4---------------4-------|
D|--------4-------4-------4-------4-------4-------4-------4-------4---|
A|--2---2---2---2---2---2---2---2---2---2---2---2---2---2---2---2-----|
E|--------------------------------------------------------------------|
..   This

And then into the 3RD CHORUS.


OUTRO:

E|--0-------------------------------0---------------------------------|
B|------------------0-------------------------------0-----------------|
G|------------5---------------5---------------5---------------5-------|
D|--------5-------5-------5-------5-------5-------5-------5-------0---|
A|--3---3---3---3---3---3---3---3---3---3---3---3---3---3---3---3-----|
E|--------------------------------------------------------------------|

E|--0-------------------------------0---------------------------------|
B|------------------0-------------------------------0-----------------|
G|------------2---------------2---------------2---------------0-------|
D|--------2-------2-------2-------2-------2-------2-------2-------2---|
A|--0---0---0---0---0---0---0---0---0---0---0---0---0---0---0---0-----|
E|--------------------------------------------------------------------|

E|--0-------------------------------0---------------------------------|
B|------------------0-------------------------------0-----------------|
G|------------1---------------1---------------1---------------1-------|
D|--------2-------2-------2-------2-------2-------2-------2-------2---|
A|------2---2---2---2---2---2---2-------2---2---2---2---2---2---2-----|
E|--0-------------------------------0---------------------------------|

E|--0-------------------------------0---------------------------------|
B|------------------0-------------------------------0-----------------|
G|------------4---------------4---------------4---------------4-------|
D|--------4-------4-------4-------4-------4-------4-------4-------4---|
A|--2---2---2---2---2---2---2---2---2---2---2---2---2---2---2---2-----|
E|--------------------------------------------------------------------|

E|-------0---|
B|------0----|
G|-----2-----|
D|----2------|
A|---0-------|
E|-----------|

Hope this helps.

Have fun.

-Elliot Friedman
----------------
Legal:
1. Copying, distribution, display and/or performance of this work is permitted under the 
conditions:
2. No Derivative Works. You may not alter, transform, or build upon this work.
3. Non-Commercial. You may not use this work for commercial purposes.
4. Attribution. Any performances of this work must give credit to the original author - 
Friedman.
Copyright  2006. Elliot Friedman.
Related for Endless Clouds tab