Guitaretab - guitar tabs
Song name
# A B C D E F G H I J K L M N O P Q R S T U V W X Y Z

Elliot Friedman - Dont Look Down tab

Elliot Friedman - "Don't Look Down" - Tablature.

http://www.elliotfriedman.com/

- Capo on fret 3
- Standard tuning - E-A-D-G-B-E
- () = optional notes
- NOTE: Lyrics mainly for reference.

INTRO/VERSE:

E|--------------------------------------------------------------------|
B|-------3-----3---------3-----3---------3-----3---------3-----3------|
G|---0-------0-------0-------0-------0-------0-------0-------0--------|
D|---------------------------------0---0---0-------0---0---0----------|
A|-3---3---3-------3---3---3------------------------------------------|
E|--------------------------------------------------------------------|
   Hey,      wake        up.       Look      at         me.

E|--------------------------------------------------------------------|
B|-------3-----3---------3-----3---------3-----3---------3------------|
G|---0-------0-------0-------0-------0-------0-------0-------0--(0)---|
D|-2---2---2-------2---2---2-------4---4---4-------4---4---4---0------|
A|--------------------------------------------------------------------|
E|--------------------------------------------------------------------|
   Some  -  thing's  changed.      Do         you        see?

E|--------------------------------------------------------------------|
B|-------3-----3---------3-----3---------3-----3---------3-----3------|
G|---0-------0-------0-------0-------0-------0-------0-------0--------|
D|---------------------------------0---0---0-------0---0---0----------|
A|-3---3---3-------3---3---3------------------------------------------|
E|--------------------------------------------------------------------|
   I've     figured     out,       What      went       wrong.

E|--------------------------------------------------------------------|
B|-------3-----3---------3-----3---------3-----3---------3-----3------|
G|---0-------0-------0-------0-------0-------0-------0-------0--------|
D|-2---2---2-------2---2---2-------4---4---4-------4---4---4----------|
A|--------------------------------------------------------------------|
E|--------------------------------------------------------------------|
   It's      taken      me,        Far       too        long.


Then, at the end of the verse (not in the intro):

E|------------------------------------|
B|--------3-----3---------3-----------|
G|---0-------0-------0-------0--(0)---|
D|-4---4---4-------4---4---4---0------|
A|------------------------------------|
E|------------------------------------|


1ST CHORUS:

E|-----------------------------0-------------------------------0---|
B|-------3-----3---------3---------------3-----3---------3---------|
G|---0-------0-------0-------0-------0-------0-------0-------0-----|
D|---------------------------------0---0---0-------0---0---0-------|
A|-3---3---3-------3---3---3---------------------------------------|
E|-----------------------------------------------------------------|
   Let's       -        -          Go         -          -

E|-----------------------------0-------------------------------0---|
B|-------3-----3---------3---------------3-----3---------3---------|
G|---0-------0-------0-------0-------0-------0-------0-------0-----|
D|-2---2---2-------2---2---2-------4---4---4-------4---4---4-------|
A|-----------------------------------------------------------------|
E|-----------------------------------------------------------------|
    Now         -        -      You'll   be   with   me,    come on

E|-----------------------------0-------------------------------0---|
B|-------3-----3---------3---------------3-----3---------3---------|
G|---0-------0-------0-------0-------0-------0-------0-------0-----|
D|---------------------------------0---0---0-------0---0---0-------|
A|-3---3---3-------3---3---3---------------------------------------|
E|-----------------------------------------------------------------|
                                   Follow     me.

E|-----------------------------0-----------------------------------|
B|-------3-----3---------3---------------3-----3---------3-----3---|
G|---0-------0-------0-------0-------0-------0-------0-------0-----|
D|-2---2---2-------2---2---2-------4---4---4-------4---4---4-------|
A|-----------------------------------------------------------------|
E|-----------------------------------------------------------------|
   Let   it   be                   We'll   be   free


Then the transition:

E|------------------------------------|
B|-------3-----3---------3------------|
G|---0-------0-------0-------0--(0)---|
D|-4---4---4-------4---4---4---0------|
A|------------------------------------|
E|------------------------------------|


2ND CHORUS:

1st+2nd lyrical lines in the 2nd chorus are the same as the 1st chorus, except the last 
above.

2nd+3rd lyrical lines:
[ Tab from: http://www.guitaretab.com/e/elliot-friedman/97643.html ]
E|-------------0---------------0---------------0---------------0---|
B|-------3---------------3---------------3---------------3---------|
G|---0-------0-------0-------0-------0-------0-------0-------0-----|
D|---------------------------------0---0---0-------0---0---0-------|
A|-3---3---3-------3---3---3---------------------------------------|
E|-----------------------------------------------------------------|
   Through                         the

E|-------------0---------------0---------------0---------------0---|
B|-------3---------------3---------------3---------------3---------|
G|---0-------0-------0-------0-------0-------0-------0-------0-----|
D|-2---2---2-------2---2---2-------4---4---4-------4---4---4-------|
A|-----------------------------------------------------------------|
E|-----------------------------------------------------------------|
   sky.                             Our   troubles   are   no  more

E|-------------0---------------0---------------0---------------0---|
B|-------3---------------3---------------3---------------3---------|
G|---0-------0-------0-------0-------0-------0-------0-------0-----|
D|---------------------------------0---0---0-------0---0---0-------|
A|-3---3---3-------3---3---3---------------------------------------|
E|-----------------------------------------------------------------|
                                   Blown   away

E|-------------0---------------0---------------0---------------0---|
B|-------3---------------3---------------3---------------3---------|
G|---0-------0-------0-------0-------0-------0-------0-------0-----|
D|-2---2---2-------2---2---2-------4---4---4-------4---4---4-------|
A|-----------------------------------------------------------------|
E|-----------------------------------------------------------------|
   To   yesterday                  There  they'll  stay

E|-------------0----------------------|
B|-------3---------------3------------|
G|---0-------0-------0-------0--(0)---|
D|-4---4---4-------4---4---4---0------|
A|------------------------------------|
E|------------------------------------|


CHORUS LINK:

E|-------------0---------------0---------------0---------------0---|
B|-------3---------------3---------------3---------------3---------|
G|---0-------0-------0-------0-------0-------0-------0-------0-----|
D|---------------------------------0---0---0-------0---0---0-------|
A|-3---3---3-------3---3---3---------------------------------------|
E|-----------------------------------------------------------------|
   Flying        high              Through       the    sky

E|-------------0---------------0---------------0---------------0---|
B|-------3---------------3---------------3---------------3---------|
G|---0-------0-------0-------0-------0-------0-------0-------0-----|
D|-2---2---2-------2---2---2-------4---4---4-------4---4---4-------|
A|-----------------------------------------------------------------|
E|-----------------------------------------------------------------|
   In    the    light              You    and   I


X 2, then:

E|-------------0----------------------|
B|-------3---------------3------------|
G|---0-------0-------0-------0--(0)---|
D|-4---4---4-------4---4---4---0------|
A|------------------------------------|
E|------------------------------------|


3RD CHORUS:

E|-------------0---------------0---------------0---------------0---|
B|-------3---------------3---------------3---------------3---------|
G|---0-------0-------0-------0-------0-------0-------0-------0-----|
D|---------------------------------0---0---0-------0---0---0-------|
A|-3---3---3-------3---3---3---------------------------------------|
E|-----------------------------------------------------------------|
   Through                         the

E|-------------0---------------0---------------0---------------0---|
B|-------3---------------3---------------3---------------3---------|
G|---0-------0-------0-------0-------0-------0-------0-------0-----|
D|-2---2---2-------2---2---2-------4---4---4-------4---4---4-------|
A|-----------------------------------------------------------------|
E|-----------------------------------------------------------------|
   sky.                             Our   troubles   are  no  more


X 4, but at the end, miss the last block of notes (Below):

E|-------------0---|
B|-------3---------|
G|---0-------0-----|
D|-4---4---4-------|
A|-----------------|
E|-----------------|

It looks more complicated than it actually is. Once you have the intro, the rest should 
relatively simple.

Hope this helps.

Have fun!

-Elliot Friedman
----------------
Legal:
1. Copying, distribution, display and/or performance of this work is permitted under the 
conditions:
2. No Derivative Works. You may not alter, transform, or build upon this work.
3. Non-Commercial. You may not use this work for commercial purposes.
4. Attribution. Any performances of this work must give credit to the original author - 
Friedman.
Copyright  2006. Elliot Friedman.
Related for Dont Look Down tab