Song name
# A B C D E F G H I J K L M N O P Q R S T U V W X Y Z

Elliot Minor - Electric High tab

Intro: Pre Verse:  (Alex
E|----------------------------------           E|12-10---------------------------|
B|17-15-10-12-12^-10----Repeat------           B|-----10-12-12^-10-------Repeat--|
G|-------------------12-------------    Or     g|------------------12------------|
D|----------------------------------           D|--------------------------------|
A|----------------------------------           A|--------------------------------|
E|----------------------------------           E|--------------------------------|

Intro and pre-verse (Ed)


E|------------------------------------------------|
B|------------------------------------------------|
G|-----------5555------77777777s10101010s12121212-|
D|-7777-3333-5555-5555-77777777s10101010s12121212-|
A|-7777-3333-3333-5555-55555555s8-8-8-8-s10101010-|
E|-5555011110----03333----------------------------|

Verse
E|-------------------------------------------------------|
B|-------------------------------------------------------|
G|-22222299999999944444444422222222222222299999999444444-|
D|-------------------------------------------------------|
A|-------------------------------------------------------|
E|-------------------------------------------------------|

Pre-Chorus

E|-----------------------------|
B|-----------------------------|
G|-7777-----------7777------2--|
D|-7777-7777-5555-7777-5555-2--|
A|-5555-7777-5555-5555-5555-0--|
E|------5555-3333------3333----|


Chorus

E|------------------------------------------------------------------------|
B|------------------------------------------------------------------------|
G|-----------5555577777----------77777----------55555-----77777-----55555-|
D|-7777733333555557777777777555557777777777333335555533333777773333355555-|
A|-7777733333333335555577777555555555577777333333333333333555553333333333-|
E|-5555511111----------5555533333-----5555511111-----11111-----11111------|

Verse
E|-------------------------------------------------------|
B|-------------------------------------------------------|
G|-22222299999999944444444422222222222222299999999444444-|
D|-------------------------------------------------------|
A|-------------------------------------------------------|
E|-------------------------------------------------------|

Pre-Chorus

E|-----------------------------|
B|-----------------------------|
G|-7777-----------7777------2--|
D|-7777-7777-5555-7777-5555-2--|
A|-5555-7777-5555-5555-5555-0--|
E|------5555-3333------3333----|

Solo:
E|17-15-12-15-12-----15-14----------|
B|--------------15-13---------------|
G|----------------------------------|
D|----------------------------------|
A|----------------------------------|
E|----------------------------------|

Intrulude

E|-----------------------------|
B|-----------------------------|
G|-7-----7---------------------|
D|-7-7-5-7-7-5-333333555555-2--|
A|-5-7-5-5-7-5-333333555555-2--|
E|---5-3---5-3-111111333333-0--|
             PM............

chorus

E|---------------------------------------------------------------------------------------------|
B|---------------------------------------------------------------------------------------------|
G|-----------5555577777----------77777----------55555-----77777-----7777710101010101212121212--|
D|-777773333355555777777777755555777777777733333555553333377777333337777710101010101212121212--|
A|-77777333333333355555777775555555555777773333333333333335555533333555558-8-8-8-8-1010101010--|
E|-5555511111----------5555533333-----5555511111-----11111-----11111---------------------------|
Tap to rate this tab
# A B C D E F G H I J K L M N O P Q R S T U V W X Y Z