Song name
# A B C D E F G H I J K L M N O P Q R S T U V W X Y Z

Elliot Minor - Tethered tab

Song: Tethered
Band: Elliot Minor
Album: Solaris

Key:-

*:- Palm Mute
x:- String Mute
~:- Let Ring

Gtr I: Alex Davies
Gtr II: Ed Minton

Both Gtr's on standard tuning (e,B,G,D,A,E)

Intro/Verse I:

Gtr I (x3)

e:|-0~~~~~~~~~~~~~~-------------------------------------------------|
B:|-1~~~~~~~~~~~~~~-------------------------------------------------|
G:|-2~~~~~~~~~~~~~~-------------------------------------------------|
D:|-2-2-2-2-2-2-2-2-3-3-3-3-3-3-3-3-2-2-2-2-2-2-2-2-----------------|
A:|-0-0-0-0-0-0-0-0-3-3-3-3-3-3-3-3-3-3-3-3-3-3-3-3-2-2-2-2-2-2-2-2-|
E:|-------------------------------------------------3-3-3-3-3-3-3-3-|

Gtr II (x3)

e:|-------------------------------------|
B:|---12-10~~~~-------------------------|
G:|-9--------------12-10-9~~-10-9-7~~~~-|
D:|-------------10----------------------|
A:|-------------------------------------|
E:|-------------------------------------|


Pre-Chorus I:

Gtr I

e:|-----------------------------------------------------------------|
B:|-----------------------------------------------------------------|
G:|-2-2-2-2-2-2-2-2-----------------2-2-2-2-2-2-2-2-----------------|
D:|-0-0-0-0-0-0-0-0-2-2-2-2-2-2-2-2-0-0-0-0-0-0-0-0-3-3-3-3---------|
A:|-----------------0-0-0-0-0-0-0-0-----------------3-3-3-3-2-2-2-2-|
E:|---------------------------------------------------------3-3-3-3-|

Gtr II

e:|-------------------------------------------|
B:|-6~~~~~~~~-5~~~~~~~~-6~~~~~~~~-1~~~~-3~~~~-|
G:|-7~~~~~~~~-5~~~~~~~~-7~~~~~~~~-2~~~~-4~~~~-|
D:|-7~~~~~~~~-7~~~~~~~~-7~~~~~~~~-3~~~~-5~~~~-|
A:|-5~~~~~~~~-7~~~~~~~~-5~~~~~~~~-3~~~~-5~~~~-|
E:|-----------5~~~~~~~~-----------1~~~~-3~~~~-|


Chorus I:

Gtr I

e:|-----------------------------------------------|
B:|-----------------------------------------------|
G:|-------------------------------2-2-2-2-2-2-2-2-|
D:|-2-2-2-2-2-2-2-2-------------2-0-0-0-0-0-0-0-0-|
A:|-3-3-3-3-3-3-3-3-2-2-2-2-2-2-0-----------------|
E:|-----------------3-3-3-3-3-3-------------------|

e:|-----------------------------------------------------------|
B:|-----------------------------------------------------------|
G:|-----------------------------------------------------------|
D:|-3-3-3-3-3-3-3-3-2-2-2-2-2-2-2-2-----------------0~~~~~~~~-|
A:|-3-3-3-3-3-3-3-3-3-3-3-3-3-3-3-3-2-2-2-2-2-2-2-2-2~~~~~~~~-|
E:|---------------------------------3-3-3-3-3-3-3-3-3~~~~~~~~-|

Gtr II

e:|-------------------------------------------|
B:|-1~~~~~~~~-------------6~~~~~~~~-----------|
G:|-0~~~~~~~~-----------6-7~~~~~~~~-5~~~~~~~~-|
D:|-2~~~~~~~~-0~~~~~~~~-7-7~~~~~~~~-7~~~~~~~~-|
A:|-3~~~~~~~~-2~~~~~~~~-7-5~~~~~~~~-7~~~~~~~~-|
E:|-----------3~~~~~~~~-5-----------5~~~~~~~~-|

e:|-------------------------------3~~~~~~~~-|
B:|-1~~~~~~~~-1~~~~~~~~-----------x---------|
G:|-2~~~~~~~~-0~~~~~~~~-----------0~~~~~~~~-|
D:|-3~~~~~~~~-2~~~~~~~~-0~~~~~~~~-0~~~~~~~~-|
A:|-3~~~~~~~~-3~~~~~~~~-2~~~~~~~~-2~~~~~~~~-|
E:|-1~~~~~~~~-----------3~~~~~~~~-3~~~~~~~~-|


Pre-Verse:

Gtr I

e:|-----------------------------------------------------------------|
B:|-----------------------------------------------------------------|
G:|---------------------------------5-5-5-5-5-5-5-5-----------------|
D:|-7-7-7-7-7-7-7-7-3-3-3-3-3-3-3-3-5-5-5-5-5-5-5-5-5-5-5-5-5-5-5-5-|
A:|-7-7-7-7-7-7-7-7-3-3-3-3-3-3-3-3-3-3-3-3-3-3-3-3-5-5-5-5-5-5-5-5-|
E:|-5-5-5-5-5-5-5-5-1-1-1-1-1-1-1-1-----------------3-3-3-3-3-3-3-3-|

Gtr II

e:|-------------------------------------|
B:|---12-10~~~~-------------------------|
G:|-9--------------12-10-9~~-10-9-7~~~~-|
D:|-------------10----------------------|
A:|-------------------------------------|
E:|-------------------------------------|


Verse II: (I'm unsure of the strumming pattern here, but I'll give you the chords. Same 
pre-Chorus II)


Gtr II (x2)

e:|---|---|---|---|
B:|---|---|-1-|-1-|
G:|-5-|-2-|-0-|-0-|
D:|-7-|-3-|-2-|-0-|
A:|-7-|-3-|-3-|-2-|
E:|-5-|-1-|---|-3-|


Pre-Chorus II:

Gtr II

e:|---|---|---|---|---|
B:|-6-|---|-6-|---|---|
G:|-7-|-5-|-7-|-2-|-4-|
D:|-7-|-7-|-7-|-3-|-5-|
A:|-5-|-7-|-5-|-3-|-5-|
E:|---|-5-|---|-1-|-3-|


Chorus II: (Strumming is still a little off but you get the basic gist of it)

Gtr I

e:|-------------------------------------------------------------------|
B:|-------------------------------------------------------------------|
G:|-5-5-5-5-5-5-5-5-------------------7-7-7-7-7-7-7-7-----------------|
D:|-5-5-5-5-5-5-5-5-5-5-5-5-5-5-5-5-7-7-7-7-7-7-7-7-7-7-7-7-7-7-7-7-7-|
A:|-3-3-3-3-3-3-3-3-5-5-5-5-5-5-5-5-7-5-5-5-5-5-5-5-5-7-7-7-7-7-7-7-7-|
E:|-----------------3-3-3-3-3-3-3-3-5-----------------5-5-5-5-5-5-5-5-|

e:|-----------------------------------------------------------------|
B:|-----------------------------------------------------------------|
G:|-----------------5-5-5-5-5-5-5-5---------------------------------|
D:|-3-3-3-3-3-3-3-3-5-5-5-5-5-5-5-5-5-5-5-5-5-5-5-5-3-3-3-3-5-5-5-5-|
A:|-3-3-3-3-3-3-3-3-3-3-3-3-3-3-3-3-5-5-5-5-5-5-5-5-3-3-3-3-5-5-5-5-|
E:|-1-1-1-1-1-1-1-1-----------------3-3-3-3-3-3-3-3-1-1-1-1-3-3-3-3-|

e:|-------------------------------------------------------------------|
B:|-------------------------------------------------------------------|
G:|-5-5-5-5-5-5-5-5-------------------7-7-7-7-7-7-7-7-----------------|
D:|-5-5-5-5-5-5-5-5-5-5-5-5-5-5-5-5-7-7-7-7-7-7-7-7-7-7-7-7-7-7-7-7-7-|
A:|-3-3-3-3-3-3-3-3-5-5-5-5-5-5-5-5-7-5-5-5-5-5-5-5-5-7-7-7-7-7-7-7-7-|
E:|-----------------3-3-3-3-3-3-3-3-5-----------------5-5-5-5-5-5-5-5-|

e:|-----------------------------------------------------------------|
B:|-----------------------------------------------------------------|
G:|-----------------5-5-5-5-5-5-5-5---------------------------------|
D:|-3-3-3-3-3-3-3-3-5-5-5-5-5-5-5-5-5-5-5-5-5-5-5-5-5-5-5-5-5-5-5-5-|
A:|-3-3-3-3-3-3-3-3-3-3-3-3-3-3-3-3-5-5-5-5-5-5-5-5-5-5-5-5-5-5-5-5-|
E:|-1-1-1-1-1-1-1-1-----------------3-3-3-3-3-3-3-3-3-3-3-3-3-3-3-3-|
PM                                  * * * * * * * *


Gtr II

e:|-------------------------------------------------------------------|
B:|-----------------------------------6-6-6-6-6-6-6-6-----------------|
G:|-5-5-5-5-5-5-5-5-----------------6-7-7-7-7-7-7-7-7-----------------|
D:|-5-5-5-5-5-5-5-5-5-5-5-5-5-5-5-5-7-7-7-7-7-7-7-7-7-7-7-7-7-7-7-7-7-|
A:|-3-3-3-3-3-3-3-3-5-5-5-5-5-5-5-5-7-5-5-5-5-5-5-5-5-7-7-7-7-7-7-7-7-|
E:|-----------------3-3-3-3-3-3-3-3-5-----------------5-5-5-5-5-5-5-5-|

e:|-----------------------------------------------------------------|
B:|-----------------------------------------------------------------|
G:|-----------------5-5-5-5-5-5-5-5-----------------5-5-5-5/7-7-7-7-|
D:|-3-3-3-3-3-3-3-3-5-5-5-5-5-5-5-5-5-5-5-5-5-5-5-5-x-x-x-x-x-x-x-x-|
A:|-3-3-3-3-3-3-3-3-3-3-3-3-3-3-3-3-5-5-5-5-5-5-5-5-3-3-3-3/5-5-5-5-|
E:|-1-1-1-1-1-1-1-1-----------------3-3-3-3-3-3-3-3-----------------|

e:|-------------------------------------------------------------------|
B:|-----------------------------------6-6-6-6-6-6-6-6-----------------|
G:|-5-5-5-5-5-5-5-5-----------------6-7-7-7-7-7-7-7-7-----------------|
D:|-5-5-5-5-5-5-5-5-5-5-5-5-5-5-5-5-7-7-7-7-7-7-7-7-7-7-7-7-7-7-7-7-7-|
A:|-3-3-3-3-3-3-3-3-5-5-5-5-5-5-5-5-7-5-5-5-5-5-5-5-5-7-7-7-7-7-7-7-7-|
E:|-----------------3-3-3-3-3-3-3-3-5-----------------5-5-5-5-5-5-5-5-|

e:|-----------------------------------------------------------------|
B:|-----------------------------------------------------------------|
G:|-----------------5-5-5-5-5-5-5-5---------------------------------|
D:|-3-3-3-3-3-3-3-3-5-5-5-5-5-5-5-5-5-5-5-5-5-5-5-5-5-5-5-5-5-5-5-5-|
A:|-3-3-3-3-3-3-3-3-3-3-3-3-3-3-3-3-5-5-5-5-5-5-5-5-5-5-5-5-5-5-5-5-|
E:|-1-1-1-1-1-1-1-1-----------------3-3-3-3-3-3-3-3-3-3-3-3-3-3-3-3-|
PM                                  * * * * * * * *


Bridge:

Gtr I

e:|-----------------------------------------------------------------|
B:|-----------------------------------------------------------------|
G:|-----------------5-5-5-5-5-5-5-5---------------------------------|
D:|-2-2-2-2-2-2-2-2-5-5-5-5-5-5-5-5-5-5-5-5-6-6-6-6-7-7-7-7-7-7-7-7-|
A:|-2-2-2-2-2-2-2-2-3-3-3-3-3-3-3-3-5-5-5-5-7-7-7-7-7-7-7-7-7-7-7-7-|
E:|-0-0-0-0-0-0-0-0-----------------3-3-3-3-4-4-4-4-5-5-5-5-5-5-5-5-|

e:|-----------------------------------------------------------------|
B:|-----------------------------------------------------------------|
G:|-----------------5-5-5-5-5-5-5-5---------------------------------|
D:|-2-2-2-2-2-2-2-2-5-5-5-5-5-5-5-5-5-5-5-5-5-5-5-5-3-3-3-3-5-5-5-5-|
A:|-2-2-2-2-2-2-2-2-3-3-3-3-3-3-3-3-5-5-5-5-5-5-5-5-3-3-3-3-5-5-5-5-|
E:|-0-0-0-0-0-0-0-0-----------------3-3-3-3-3-3-3-3-1-1-1-1-3-3-3-3-|
PM                                  * * * * * * * *

Gtr II

e:|-----------------------------------------------------------------|
B:|-----------------------------------------------------------------|
G:|-----------------5-5-5-5-5-5-5-5-----------------5-5-5-5/7-7-7-7-|
D:|-2-2-2-2-2-2-2-2-5-5-5-5-5-5-5-5-5-5-5-5-5-5-5-5-x-x-x-x-x-x-x-x-|
A:|-2-2-2-2-2-2-2-2-3-3-3-3-3-3-3-3-5-5-5-5-5-5-5-5-3-3-3-3/5-5-5-5-|
E:|-0-0-0-0-0-0-0-0-----------------3-3-3-3-3-3-3-3-----------------|
PM                                  * * * * * * * *


Repeat Chorus, but end Gtr II's parts with a pick scrape.


Now, there is a solo here, but unfortunately I don't have that just yet, so here is just 
I's parts.


Solo/Outro:

Gtr I

e:|-------------------------------------------------------------------|
B:|-------------------------------------------------------------------|
G:|-5-5-5-5-5-5-5-5-------------------7-7-7-7-7-7-7-7-----------------|
D:|-5-5-5-5-5-5-5-5-5-5-5-5-5-5-5-5-7-7-7-7-7-7-7-7-7-7-7-7-7-7-7-7-7-|
A:|-3-3-3-3-3-3-3-3-5-5-5-5-5-5-5-5-7-5-5-5-5-5-5-5-5-7-7-7-7-7-7-7-7-|
E:|-----------------3-3-3-3-3-3-3-3-5-----------------5-5-5-5-5-5-5-5-|

e:|-----------------------------------------------------------------|
B:|-----------------------------------------------------------------|
G:|-----------------5-5-5-5-5-5-5-5---------------------------------|
D:|-3-3-3-3-3-3-3-3-5-5-5-5-5-5-5-5-5-5-5-5-5-5-5-5-3-3-3-3-5-5-5-5-|
A:|-3-3-3-3-3-3-3-3-3-3-3-3-3-3-3-3-5-5-5-5-5-5-5-5-3-3-3-3-5-5-5-5-|
E:|-1-1-1-1-1-1-1-1-----------------3-3-3-3-3-3-3-3-1-1-1-1-3-3-3-3-|

e:|-------------------------------------------------------------------|
B:|-------------------------------------------------------------------|
G:|-5-5-5-5-5-5-5-5-------------------7-7-7-7-7-7-7-7-----------------|
D:|-5-5-5-5-5-5-5-5-5-5-5-5-5-5-5-5-7-7-7-7-7-7-7-7-7-7-7-7-7-7-7-7-7-|
A:|-3-3-3-3-3-3-3-3-5-5-5-5-5-5-5-5-7-5-5-5-5-5-5-5-5-7-7-7-7-7-7-7-7-|
E:|-----------------3-3-3-3-3-3-3-3-5-----------------5-5-5-5-5-5-5-5-|

e:|-----------------------------------------------------------------|
B:|-----------------------------------------------------------------|
G:|-----------------5-5-5-5-5-5-5-5---------------------------------|
D:|-3-3-3-3-3-3-3-3-5-5-5-5-5-5-5-5-5-5-5-5-5-5-5-5-5-5-5-5-5-5-5-5-|
A:|-3-3-3-3-3-3-3-3-3-3-3-3-3-3-3-3-5-5-5-5-5-5-5-5-5-5-5-5-5-5-5-5-|
E:|-1-1-1-1-1-1-1-1-----------------3-3-3-3-3-3-3-3-3-3-3-3-3-3-3-3-|
PM                                  * * * * * * * *


End On:

Gtr I

e:|-------------------|
B:|-------------------|
G:|-2~~~~-5-----------|
D:|-2~~~~-5-3~~~~~~~~-|
A:|-0~~~~-3-3~~~~~~~~-|
E:|---------1~~~~~~~~-|

Gtr II

e:|---------------------|
B:|---------------------|
G:|-7~~~~-9--10~~~~~~~~-|
D:|-7~~~~-10-10~~~~~~~~-|
A:|-7~~~~-10-8~~~~~~~~~-|
E:|-5~~~~-8--8~~~~~~~~~-|
Tap to rate this tab
# A B C D E F G H I J K L M N O P Q R S T U V W X Y Z