Song name
# A B C D E F G H I J K L M N O P Q R S T U V W X Y Z

Elliot Minor - Tethered tab

I think that this is probably the easiest E.M solo you will find and the other tab does 
have it so I decided to tab it myself.

b-bend
p-pull off
/-slide

e|-----7-8------7-8-----8-7---7---13p12-------8-9-------8-9--------|
B|---8--------8-------8-----8--------------10--------10------------|
G|-9-------9b-------7-----------7-------10--------10---------------|
D|-----------------------------------------------------------------|
A|-----------------------------------------------------------------|
E|-----------------------------------------------------------------|

e|-------------------------------12-13-------12-13-----7-8-8/15----|
B|----13----13----13----13----10----------10---------8-------------|
G|-14----14----13----12----10----------10----------9---------------|
D|-----------------------------------------------------------------|
A|-----------------------------------------------------------------|
E|-----------------------------------------------------------------|

e|-12-10-8---------------------------------------------------------|
B|---------1-1-1-1-0-0-0-0-----------------------------------------|
G|-------------------------2-2-2-2-0-0-0-0-------------------------|
D|-----------------------------------------------------------------|
A|-----------------------------------------------------------------|
E|-----------------------------------------------------------------|
Tap to rate this tab
# A B C D E F G H I J K L M N O P Q R S T U V W X Y Z