Song name
# A B C D E F G H I J K L M N O P Q R S T U V W X Y Z

Elliot Minor - So Here We Are tab

Song: So here we are
Band: Elliot Minor
Album: Elliot Minor


h-hammer on
p-pull off
b-bend
/-slide
pm-palm mute
/pm-stop palm mute

Intro

e|--------------------------------------------------|
B|--------------------------------------------------|
G|---------0-0-0------0-0-0---------2-2-2----0-0-0--|
D|---------2-2-2------2-2-2---------2-2-2----2-2-2--| (X2)
A|--0h2h3--3-3-3---2--2-2-2--0h2p0--0-0-0--2-2-2-2--|
E|--------------------------------------------------|

verse 1

e|--------------------------------------------------|
B|--------------------------------------------------|
G|---------0-0-0------0-0-0---------2-2-2----0-0-0--|
D|---------2-2-2------2-2-2---------2-2-2----2-2-2--| (X2)
A|--0h2h3--3-3-3---2--2-2-2--0h2p0--0-0-0--2-2-2-2--|
E|--------------------------------------------------|

e|------2----0----0---------------------------------|
B|------2----1----1---------------------------------|
G|------3----2----0--------0-0-0-----0-0-0----------|
D|------4----2----2--------2-2-2-----2-2-2----------|
A|------4--0-0--3-3--0h2h3-3-3-3--2--2-2-2----------|
E|--2-2-2-------------------------------------------|

e|--------------------------------------------------|
B|--------------------------------------------------|
G|--------2-2-2----0-0-0----------------------------|
D|--------2-2-2----2-2-2----------------------------|
A|-0h2p0--0-0-0--2-2-2-2----------------------------|
E|--------------------------------------------------|

Repeat verse 1 for verse 2

Pre Chorus(guitar comes in distorted)

e|--------------------------------------------------|
B|--------------------------------------------------|
G|-------5-----4-----------------------7------------|
D|-3-----5-----4-----7-----5-----3-----7-----5------|
A|-3(x8)-3(x4)-2(x4)-7(x8)-5(x8)-3(x8)-5(x8)-5(x8)--|
E|-1-----------------5-----3-----1-----------3------|

e|--------------------------------------------------|
B|--------------------------------------------------|
G|--55----------------------------------------------|
D|--55----------------------------------------------|
A|--33----------------------------------------------|
E|--------------------------------------------------|

Chorus

Rythm:

e|--------------------------------------------------|
B|--------------------------------------------------|
G|-5------------------------------------------------|
D|-5-----7-----2-----33-55--------------------------| (x2)
A|-3(x8)-7(x8)-2(x8)-33-55--------------------------|
E|-------5-----0-----11-33--------------------------|

e|--------------------------------------------------|
B|--------------------------------------------------|
G|-5------------5-----------------------------------|
D|-5-----5------5-----3-----------------------------| (x3)
A|-3(x4)-5-(x4)-3(x4)-3(x4)-------------------------|
E|-------3------------1-----------------------------|

e|--------------------------------------------------|
B|--------------------------------------------------|
G|-5-----9------------------------------------------|
D|-5-----9-----7-----5------------------------------|
A|-3(x4)-7(x4)-7(x4)-5(x4)--------------------------|
E|-------------5-----3------------------------------|

Lead:

e|---------------------15------15-----15------15----|
B|-13--13--13--13--13------13-----12------12--------|
G|---12--12--12--12--12--12--12-----12--12--12------|
D|--------------------------------------------------|
A|--------------------------------------------------|
E|--------------------------------------------------|

e|-----15------15------15------15----15------15-----|
B|-13------15------13------13------13----13---------|
G|---12--12--12--12--12--12--12--12----12--12-------|
D|--------------------------------------------------|
A|--------------------------------------------------|
E|--------------------------------------------------|

e|-------15------15----15------15-------------------|
B|---12------12----13------15-----------------------|
G|-12--12--12--12----12--12--12--12-----------------|
D|--------------------------------------------------|
A|--------------------------------------------------|
E|--------------------------------------------------|

The next part you have to listen to the song to get the timing right but it goes like this:

e|---15-----------------15---------------15-------15-|
B|---------------------------------------------------|
G|---------------------------------------------------|
D|---------------------------------------------------|
A|---------------------------------------------------|
E|---------------------------------------------------|

there is no lead guitar in the last part of the chorus

Post chorus solo:

e|-----------------------------------------------------|
B|-----------------------------------------------------|
G|-0-0-0-5/7-0-0-0-9-7-5-7-5-0-0-0-5/7-0-0-0-9-7-5-----|
D|-------------------------------------------------7-5-|
A|-----------------------------------------------------|
E|-----------------------------------------------------|

(rythm)

e|------000------------------------000---------------0-|
B|------111------------------------111---------------1-|
G|------000------------------------000---------------0-|
D|------222------------------------222---------------2-|
A|------333------------------------333---------------3-|
E|-----------------------------------------------------|

verse 3

e|---------------000-000------------------------------|
B|---------------111-111------------------------------|
G|---------------000-000------------------------------|
D|---------------222-222------------------------------|
A|---------------333-333------------------------------|
E|----------------------------------------------------|
 "So here we are, it is so complicated. We've come too
  far..."

e|----------------------------------------------------|
B|----------------------------------------------------|
G|-5--9--------5--------------------------------------|
D|-5--9--7--5--3--------------------------------------|(this is distorted)
A|-3--7--5--3--3--------------------------------------|
E|-------5--3-----------------------------------------|

in the 1,2,3,4 part you have to go off the fret board and the first bar type thing you 
to press down on the edge of it and
pic in time with the 1,2,3,4.

Pre Chorus and Chorus are the same

Solo(you could also play it an octave higher until the part after all the hammer ons)

e|--3b-5-3-------------------------------------17-----|
B|---------5-3-1-5------2h3-3h5-5h6-6h8-8h9-10--------|
G|-----------------4-2h4------------------------------|
D|----------------------------------------------------|
A|----------------------------------------------------|
E|----------------------------------------------------|

e|----------------------------------------------------|
B|-15-13-17-13h15p13-15-------------------------------|
G|----------------------------------------------------|
D|----------------------------------------------------|
A|----------------------------------------------------|
E|----------------------------------------------------|


post solo

e|-17-17----17----------------------------------------|
B|----------------------------------------------------|
G|----------------------------------------------------| (x16)
D|----------------------------------------------------|
A|----------------------------------------------------|
E|----------------------------------------------------|
   [pm]   [/pm]


Chorus(just before it)

e|---------------------------------------------------|
B|---------------------------------------------------|
G|--55-----------------------------------------------|
D|--55-----------------------------------------------|
A|--33-----------------------------------------------|
E|---------------------------------------------------|

Finish off with a last chorus.
Tap to rate this tab
 
# A B C D E F G H I J K L M N O P Q R S T U V W X Y Z