Song name
# A B C D E F G H I J K L M N O P Q R S T U V W X Y Z

Elliot Minor - Tethered tab

Tabbed by: muhaimin93
tuning: standard

a solo from the song Tethered from Elliot Minor. I think this should be quite accurate. 

e|-----7-8-----7-8-----8-7---7--------------9-10-------9-10----------------|
B|-5-8-----5-8-------8-----8---8---------10---------10---------------------|
G|-----------------7--------------7h9h10---------10---------12b-10b-9b-8b--|
D|-------------------------------------------------------------------------|
A|-------------------------------------------------------------------------|
E|-------------------------------------------------------------------------|

e|-------12-13-------12-13----------12-15-12-------------------------------|
B|----13----------13----------13-15----------15-13-13-12-10-8--------------|
G|-10----------10----------------------------------------------------------|
D|-------------------------14----------------------10--9--7-5--------------|
A|-------------------------------------------------------------------------|
E|-------------------------------------------------------------------------|

Tap to rate this tab
# A B C D E F G H I J K L M N O P Q R S T U V W X Y Z