Song name
# A B C D E F G H I J K L M N O P Q R S T U V W X Y Z

Elliot Minor - I Believe tab

Song: I Believe
Band: Elliot Minor
Album: Solaris

Key:-

*:- Palm mute
x:- String mute
/:- Slide
h:- Hammer-on
p:- Pull-off
~:- Let ring


Gtr I: Alex Davies
Gtr II: Ed Minton

Both Gtr's on standard tuning (e,B,G.D,A,E)


Intro:

Gtr I

e:|-----------------------------------------------------------------|
B:|-----------------------------------------------------------------|
G:|-3-3-3-3-3-3-3-3-3-3-3-3-3-3-3-3---------------------------------|
D:|-3-3-3-3-3-3-3-3-3-3-3-3-3-3-3-3-4-4-4-4-4-4-4-4-4-4-4-4-4-4-4-4-|
A:|-1-1-1-1-1-1-1-1-1-1-1-1-1-1-1-1-4-4-4-4-4-4-4-4-4-4-4-4-4-4-4-4-|
E:|---------------------------------2-2-2-2-2-2-2-2-2-2-2-2-2-2-2-2-|

e:|-----------------------------------------------------------------|
B:|-----------------------------------------------------------------|
G:|-8-8-8-8-8-8-8-8-8-8-8-8-8-8-8-8-3-3-3-3-3-3-3-3-3-3-3-3-3-3-3-3-|
D:|-8-8-8-8-8-8-8-8-8-8-8-8-8-8-8-8-3-3-3-3-3-3-3-3-3-3-3-3-3-3-3-3-|
A:|-6-6-6-6-6-6-6-6-6-6-6-6-6-6-6-6-1-1-1-1-1-1-1-1-1-1-1-1-1-1-1-1-|
E:|-----------------------------------------------------------------|

Gtr II

e:|-----------------------------------------|
B:|-----------------------------------------|
G:|---6-/10h11p10-6---6---6-/10h11p10-6---6-|
D:|-8---------------8---8---------------8---|
A:|-----------------------------------------|
E:|-----------------------------------------|

e:|-----------------------------------------|
B:|-----------------------------------------|
G:|---6-/10h11p10-6---6---6-/10h11p10-6---6-|
D:|-8---------------8---8---------------8---|
A:|-----------------------------------------|
E:|-----------------------------------------|

e:|---------------------------------------------|
B:|---------------------------------------------|
G:|----8-/12h13p12-8----8----8-/12h13p12-8----8-|
D:|-10---------------10---10---------------10---|
A:|---------------------------------------------|
E:|---------------------------------------------|

e:|-----------------------------------------|
B:|-----------------------------------------|
G:|---6-/10h11p10-6---6---6-/10h11p10-6---6-|
D:|-8---------------8---8---------------8---|
A:|-----------------------------------------|
E:|-----------------------------------------|


Verse I:

Gtr II (x2)

e:|---------------------------------------------------------|
B:|---------------------------------4~-----4~-----4~-----4~-|
G:|-----3~-----3~-----3~-----3~-----3~-----3~-----3~-----3~-|
D:|---------------------------------------------------------|
A:|-1-1----1-1----1-1----1-1--------------------------------|
E:|-----------------------------2-2----2-2----2-2----2-2----|

e:|----------------------------------------------------------------------|
B:|----------------------------------------------------------------------|
G:|-----5~-----5~-----5~-----5~----6-/10h11p10-6---6---6-/10h11p10-6---6-|
D:|-----6~-----6~-----6~-----6~--8---------------8---8---------------8---|
A:|----------------------------------------------------------------------|
E:|-4-4----4-4----4-4----4-4---------------------------------------------|


Pre-Chorus:

Gtr I

e:|---------------------------------------------|
B:|---------------------------------------------|
G:|---------------------------------------------|
D:|-4~~~~-6~~~~---------------------------------|
A:|-4~~~~-6~~~~-----8h9p8-----------8h9p8-------|
E:|-2~~~~-4~~~~-6-9-------9-6-9-6-9-------9-6-9-|
PM              * *       * * * * *       * * *

e:|-------------5-5-5-5-5-5-5-5-5-5-5-5-5-5-5-5-|
B:|-------------6-6-6-6-6-6-6-6-6-6-6-6-6-6-6-6-|
G:|-------8~~~~-5-5-5-5-5-5-5-5-5-5-5-5-5-5-5-5-|
D:|-4~~~~-8~~~~---------------------------------|
A:|-4~~~~-6~~~~---------------------------------|
E:|-2~~~~---------------------------------------|

Gtr II

e:|---------------------------------------------|
B:|---------------------------------------------|
G:|---------------------------------------------|
D:|-4~~~~-6~~~~---------------------------------|
A:|-4~~~~-6~~~~-----8h9p8-----------8h9p8-------|
E:|-2~~~~-4~~~~-6-9-------9-6-9-6-9-------9-6-9-|
PM              * *       * * * * *       * * *

e:|-------------------------------------------------|
B:|-------8~~~~-------------------------------------|
G:|-------8~~~~-10101010/12121212/15151515/17171717-|
D:|-4~~~~-8~~~~--x-x-x-x--x-x-x-x--x-x-x-x--x-x-x-x-|
A:|-4~~~~-6~~~~--8-8-8-8/10101010/13131313/15151515-|
E:|-2~~~~-------------------------------------------|


Chorus:

Gtr I

e:|-----------------------------------------------------------------|
B:|-----------------------------------------------------------------|
G:|-3-3-3-3-3-3-3-3-3-3-3-3-3-3-3-3-8-8-8-8-8-8-8-8-----------------|
D:|-3-3-3-3-3-3-3-3-3-3-3-3-3-3-3-3-8-8-8-8-8-8-8-8-6-6-6-6-6-6-6-6-|
A:|-1-1-1-1-1-1-1-1-1-1-1-1-1-1-1-1-6-6-6-6-6-6-6-6-6-6-6-6-6-6-6-6-|
E:|-------------------------------------------------4-4-4-4-4-4-4-4-|

e:|-----------------------------------------------------------------|
B:|-7-7-7-7-7-7-7-7-------------------------------------------------|
G:|-6-6-6-6-6-6-6-6-6-6-6-6-6-6-6-6-8-8-8-8-8-8-8-8-----------------|
D:|-4-4-4-4-4-4-4-4-6-6-6-6-6-6-6-6-8-8-8-8-8-8-8-8-3-3-3-3-3-3-3-3-|
A:|-----------------4-4-4-4-4-4-4-4-6-6-6-6-6-6-6-6-3-3-3-3-3-3-3-3-|
E:|-------------------------------------------------1-1-1-1-1-1-1-1-|

e:|-----------------------------------------------------------------|
B:|-----------------------------------------------------------------|
G:|-3-3-3-3-3-3-3-3-3-3-3-3-3-3-3-3---------------------------------|
D:|-3-3-3-3-3-3-3-3-3-3-3-3-3-3-3-3-4-4-4-4-4-4-4-4-6-6-6-6-6-6-6-6-|
A:|-1-1-1-1-1-1-1-1-1-1-1-1-1-1-1-1-4-4-4-4-4-4-4-4-6-6-6-6-6-6-6-6-|
E:|---------------------------------2-2-2-2-2-2-2-2-4-4-4-4-4-4-4-4-|

e:|-----------------------------------------------------------------|
B:|-----------------------------------------------------------------|
G:|-4-4-4-4-4-4-4-4-----------------8-8-8-8-8-8-8-8-----------------|
D:|-4-4-4-4-4-4-4-4-4-4-4-4-4-4-4-4-8-8-8-8-8-8-8-8-3-3-3-3-3-3-3-3-|
A:|-2-2-2-2-2-2-2-2-4-4-4-4-4-4-4-4-6-6-6-6-6-6-6-6-3-3-3-3-3-3-3-3-|
E:|-----------------2-2-2-2-2-2-2-2-----------------1-1-1-1-1-1-1-1-|

Gtr II

e:|-----------------------------------------------------------------|
B:|-----------------------------------------------------------------|
G:|---------------------------------8-8-8-8-8-8-8-8-----------------|
D:|-8-8-8-8-8-8-8-8-8-8-8-8-8-8-8-8-8-8-8-8-8-8-8-8-6-6-6-6-6-6-6-6-|
A:|-8-8-8-8-8-8-8-8-8-8-8-8-8-8-8-8-6-6-6-6-6-6-6-6-6-6-6-6-6-6-6-6-|
E:|-6-6-6-6-6-6-6-6-6-6-6-6-6-6-6-6-----------------4-4-4-4-4-4-4-4-|

e:|------------------------------------------------------------------|
B:|-7-7-7-7-7-7-7-7-----------------7-7-7-7-7-7-7-7-1010101010101010-|
G:|-6-6-6-6-6-6-6-6-6-6-6-6-6-6-6-6-8-8-8-8-8-8-8-8-1010101010101010-|
D:|-4-4-4-4-4-4-4-4-6-6-6-6-6-6-6-6-x-x-x-x-x-x-x-x-x-x-x-x-x-x-x-x--|
A:|-----------------4-4-4-4-4-4-4-4-6-6-6-6-6-6-6-6-8-8-8-8-8-8-8-8--|
E:|------------------------------------------------------------------|

e:|-----------------------------------------------------------------|
B:|-----------------------------------------------------------------|
G:|-----------------------------------------------------------------|
D:|-8-8-8-8-8-8-8-8-8-8-8-8-8-8-8-8-4-4-4-4-4-4-4-4-6-6-6-6-6-6-6-6-|
A:|-8-8-8-8-8-8-8-8-8-8-8-8-8-8-8-8-4-4-4-4-4-4-4-4-6-6-6-6-6-6-6-6-|
E:|-6-6-6-6-6-6-6-6-6-6-6-6-6-6-6-6-2-2-2-2-2-2-2-2-4-4-4-4-4-4-4-4-|

e:|------------------------------------------------------------------|
B:|------------------------------------------------------------------|
G:|-4-4-4-4-4-4-4-4-----------------8-8-8-8-8-8-8-8-1010101010101010-|
D:|-4-4-4-4-4-4-4-4-4-4-4-4-4-4-4-4-x-x-x-x-x-x-x-x--x-x-x-x-x-x-x-x-|
A:|-2-2-2-2-2-2-2-2-4-4-4-4-4-4-4-4-6-6-6-6-6-6-6-6--8-8-8-8-8-8-8-8-|
E:|-----------------2-2-2-2-2-2-2-2----------------------------------|


Pre-Verse: (Just repeat intro)


Verse II:

Gtr II (x2)

e:|-------------------------------------------------------------|
B:|-------------------------------------4~-----4~-----4~-----4~-|
G:|-----10~-----10~-----10~-----10~-----3~-----3~-----3~-----3~-|
D:|------8~------8~------8~------8~-----------------------------|
A:|-------------------------------------------------------------|
E:|-6-6-----6-6-----6-6-----6-6-----2-2----2-2----2-2----2-2----|

e:|----------------------------------------------------------------------|
B:|----------------------------------------------------------------------|
G:|-----5~-----5~-----5~-----5~----6-/10h11p10-6---6---6-/10h11p10-6---6-|
D:|-----6~-----6~-----6~-----6~--8---------------8---8---------------8---|
A:|----------------------------------------------------------------------|
E:|-4-4----4-4----4-4----4-4---------------------------------------------|


Repeat Pre-Chorus

Repeat Chorus

Bridge Pt I:

Gtr II

e:|---------------------------------------------------------|
B:|---------------------------------------------------------|
G:|-----3~-----3~-----3~-----3~-----3~-----3~-----3~-----3~-|
D:|---------------------------------------------------------|
A:|-1-1----1-1----1-1----1-1----1-1----1-1----1-1----1-1----|
E:|---------------------------------------------------------

e:|---------------------------------------------------------|
B:|---------------------------------------------------------|
G:|-----2~-----2~-----2~-----2~-----------------------------|
D:|---------------------------------6~-----6~-----6~-----6~-|
A:|-----------------------------4-4----4-4----4-4----4-4----|
E:|-2-2----2-2----2-2----2-2--------------------------------|

e:|-----------------------------|
B:|-----------------------------|
G:|-----------------------------|
D:|-----6~-----6~-----6~-----6~-|
A:|-----------------------------|
E:|-4-4----4-4----4-4----4-4----|


Bridge Pt II:

Both Gtr's

(I'm un-sure of the strumming pattern here, so I'll just give you the chords)

e:|---|---|---|---|
B:|---|---|---|---|
G:|---|---|-6-|---|
D:|-8-|-4-|-6-|-6-|
A:|-8-|-4-|-4-|-6-|
E:|-6-|-2-|---|-4-|


Repeat Pre-Chorus but end with:

Both Gtr's

e:|---------------------------------------------------|
B:|---------------------------------------------------|
G:|---------------------------------------------------|
D:|-3-3-3-3-3-3-3-3-3-3-3-3-3-3-3-3-3-3-3-3-3-3-3-3-3-|
A:|-3-3-3-3-3-3-3-3-3-3-3-3-3-3-3-3-3-3-3-3-3-3-3-3-3-|
E:|-1-1-1-1-1-1-1-1-1-1-1-1-1-1-1-1-1-1-1-1-1-1-1-1-1-|
PM  * * * * * * * * * * * * * * * *


Repeat Chorus

There is then a solo but unfortunately I don't know it (yet), so just repeat chorus again.

Outro:

Gtr I

e:|-----------------------------------------------------------------|
B:|-----------------------------------------------------------------|
G:|-4-4-4-4-4-4-4-4-----------------4-4-4-4-4-4-4-4-----------------|
D:|-4-4-4-4-4-4-4-4-4-4-4-4-4-4-4-4-4-4-4-4-4-4-4-4-4-4-4-4-4-4-4-4-|
A:|-2-2-2-2-2-2-2-2-4-4-4-4-4-4-4-4-2-2-2-2-2-2-2-2-4-4-4-4-4-4-4-4-|
E:|-----------------2-2-2-2-2-2-2-2-----------------2-2-2-2-2-2-2-2-|

e:|-----------------------------------------------------------------|
B:|-----------------------------------------------------------------|
G:|-4-4-4-4-4-4-4-4-----------------8-8-8-8-8-8-8-8-----------------|
D:|-4-4-4-4-4-4-4-4-4-4-4-4-4-4-4-4-8-8-8-8-8-8-8-8-3-3-3-3-3-3-3-3-|
A:|-2-2-2-2-2-2-2-2-4-4-4-4-4-4-4-4-6-6-6-6-6-6-6-6-3-3-3-3-3-3-3-3-|
E:|-----------------2-2-2-2-2-2-2-2-----------------1-1-1-1-1-1-1-1-|

Gtr II

e:|-----------------------------------------------------------------|
B:|-----------------------------------------------------------------|
G:|-4-4-4-4-4-4-4-4-----------------4-4-4-4-4-4-4-4-----------------|
D:|-4-4-4-4-4-4-4-4-4-4-4-4-4-4-4-4-4-4-4-4-4-4-4-4-4-4-4-4-4-4-4-4-|
A:|-2-2-2-2-2-2-2-2-4-4-4-4-4-4-4-4-2-2-2-2-2-2-2-2-4-4-4-4-4-4-4-4-|
E:|-----------------2-2-2-2-2-2-2-2-----------------2-2-2-2-2-2-2-2-|

e:|------------------------------------------------------------------|
B:|------------------------------------------------------------------|
G:|-4-4-4-4-4-4-4-4-----------------8-8-8-8-8-8-8-8-1010101010101010-|
D:|-4-4-4-4-4-4-4-4-4-4-4-4-4-4-4-4-x-x-x-x-x-x-x-x--x-x-x-x-x-x-x-x-|
A:|-2-2-2-2-2-2-2-2-4-4-4-4-4-4-4-4-6-6-6-6-6-6-6-6--8-8-8-8-8-8-8-8-|
E:|-----------------2-2-2-2-2-2-2-2----------------------------------|


End on:

Gtr I

e:|-----------|
B:|-----------|
G:|-3~~~~~~~~-|
D:|-3~~~~~~~~-|
A:|-1~~~~~~~~-|
E:|-----------|

Gtr II

e:|-----------|
B:|-----------|
G:|-----------|
D:|-8~~~~~~~~-|
A:|-8~~~~~~~~-|
E:|-6~~~~~~~~-|
Tap to rate this tab
# A B C D E F G H I J K L M N O P Q R S T U V W X Y Z