Song name
# A B C D E F G H I J K L M N O P Q R S T U V W X Y Z

Elliot Minor - Lets Turn This Back Around tab

This is my first tab so don't know if it's perfect. Please feel free to correct me if 
i'm wrong, email me at josh-41@hotmail.co.uk

Artist: Elliot Minor
Song: Let's Turn This Back Around (from the album Solaris)
Tuning: Drop D (D, A, D, G, B, e)

Chorus:

   A#5             F5              D5              A5
E|-----------------------------------------------------------------|
B|-----------------------------------------------------------------|
G|-3-3-3-3-3-3-3-3---------------------------------2-2-2-2-2-2-2-2-|
D|-3-3-3-3-3-3-3-3-3-3-3-3-3-3-3-3-0-0-0-0-0-0-0-0-2-2-2-2-2-2-2-2-|
A|-1-1-1-1-1-1-1-1-3-3-3-3-3-3-3-3-0-0-0-0-0-0-0-0-0-0-0-0-0-0-0-0-|
E|-----------------3-3-3-3-3-3-3-3-0-0-0-0-0-0-0-0-----------------|

   A#5             F5              C5
e|-------------------------------------------------|
B|-------------------------------------------------|
G|-3-3-3-3-3-3-3-3-----------------5-5-5-5-5-5-5-5-|
D|-3-3-3-3-3-3-3-3-3-3-3-3-3-3-3-3-5-5-5-5-5-5-5-5-|
A|-1-1-1-1-1-1-1-1-3-3-3-3-3-3-3-3-3-3-3-3-3-3-3-3-|
D|-----------------3-3-3-3-3-3-3-3-----------------|
Tap to rate this tab
 
# A B C D E F G H I J K L M N O P Q R S T U V W X Y Z