Song name
# A B C D E F G H I J K L M N O P Q R S T U V W X Y Z

Elliot Minor - The Broken Minor tab

-------------------------------------------------------------------------------
                             The Broken Minor - Elliot Minor
-------------------------------------------------------------------------------
Tabbed by: Connor Smith
E-mail: connorbetts-1995@hotmail.co.uk

Tuning:Standard

I'm having a go at transposing this to guitar. 
There's no doubt this is going to be a team effort so if you have improves please comment!

Intro

e|-----------0----12h-------------------------8-------------5-------------------|
B|------1--3---------12h------------------3h5---8-------------5-----------------|
G|-----------------------12------------2h4--------------2-----------------------|
D|-2------------------------14----------------------0h2--------------5--7--9----|
A|---3-------------------------14----0-------------------------------5--7--9----|
E|-------------------------------------------------------------------3--5--7----|

Verse

e|-0--0-------3--3p1p0---1----0---0---3---------------------------------------|
B|-1----3p1h3-0--------3-3----1---1---0---------------------------------------|
G|-0----------0----------2----2---0---0---------------------------------------|
D|-2----------0----------0----3---2---0---------------------------------------|
A|-3----------2-------------------3---2---------------------------------------|
E|-0----------3-------------------0---3---------------------------------------|

e|-0-0-0--0-------3--3p1p0---1----0---0---3---------------------------------------|
B|-1-1-1----3p1h3-0--------3-3----1---1---0---------------------------------------|
G|-0-0-0----------0----------2----2---0---0---------------------------------------|
D|-2-2-2----------0----------0----3---2---0---------------------------------------|
A|-3-3-3----------2-------------------3---2---------------------------------------|
E|-0-0-0----------3-------------------0---3---------------------------------------|

Piano Part

e|-----------------------------------------------------------------------|
B|-----------------------------------------------------------------------|
G|-7---7----5---5-----9----9------7-----7--------------------------------|
D|---0---0----5---5-----10---10-----9-----9------------------------------|
A|---5---5----3---3-----12---12-----10----10-----------------------------|
E|-----------------------------------------------------------------------|x3

Guitar part

e|-----------------------------------------------------------------|
B|-----------------------------------------------------------------|
G|------7-----------------5----------------------------------------|
D|------7-------3---------5--------5-------------------------------|
A|--5-5-5-5--3-3-3-3--3-3-3-3------5-------------------------------|
E|-----------1-1-1-1-----------3-3-3-3-----------------------------|

e|---------------------------------------------------------------------------|
B|---------------------------------------------------------------------------|
G|---------------------------------------------------------------------------|
D|-3-3-3-3-3-3-3-3-5-5-5-5-5-5-5-5-------------------------------------------|
A|-3-3-3-3-3-3-3-3-5-5-5-5-5-5-5-5-------------------------------------------|
E|-1-1-1-1-1-1-1-1-3-3-3-3-3-3-3-3-------------------------------------------|

Chorus Play Throughout twice.

e|---------------------------------------------------------------------------|
B|---------------------------------------------------------------------------|
G|--------------------5-5-5-5-5-5-5-5-5-7-7-7-7-7-7-7-7-9-9-9-9-9-9-9--------|
D|--3-3-3-3-3-3-3-3-3-5-5-5-5-5-5-5-5-5-7-7-7-7-7-7-7-7-9-9-9-9-9-9-9--------|
A|--3-3-3-3-3-3-3-3-3-3-3-3-3-3-3-3-3-5-5-5-5-5-5-5-5-5-7-7-7-7-7-7-7--------|
E|--1-1-1-1-1-1-1-1-1--------------------------------------------------------|

e|---------------------------------------------------------------------------|
B|---------------------------------------------------------------------------|
G|--------------------5-5-5-5-5-5-5-5-5--------------------------------------|
D|--3-3-3-3-3-3-3-3-3-5-5-5-5-5-5-5-5-5-5-5-5-5-5-5-5-5-5-5-5-5-5-5-5-5------|
A|--3-3-3-3-3-3-3-3-3-3-3-3-3-3-3-3-3-5-5-5-5-5-5-5-5-5-5-5-5-5-5-5-5-5------|
E|--1-1-1-1-1-1-1-1-1-------------------3-3-3-3-3-3-3-3-3-3-3-3-3-3-3-3------|

e|-----------0----12h-------------------------8-------------5-------------------|
B|------1--3---------12h------------------3h5---8-------------5-----------------|
G|-----------------------12------------2h4--------------2-----------------------|
D|-2------------------------14----------------------0h2--------------5--7--9----|
A|---3-------------------------14----0-------------------------------5--7--9----|
E|-------------------------------------------------------------------3--5--7----|

Verse

e|-0--0-------3--3p1p0---1----0---0---3---------------------------------------|
B|-1----3p1h3-0--------3-3----1---1---0---------------------------------------|
G|-0----------0----------2----2---0---0---------------------------------------|
D|-2----------0----------0----3---2---0---------------------------------------|
A|-3----------2-------------------3---2---------------------------------------|
E|-0----------3-------------------0---3---------------------------------------|

Piano part 

e|-----------------------------------------------------------------------|
B|-----------------------------------------------------------------------|
G|-7---7----5---5-----9----9------7-----7--------------------------------|
D|---0---0----5---5-----10---10-----9-----9------------------------------|
A|---5---5----3---3-----12---12-----10----10-----------------------------|
E|-----------------------------------------------------------------------|x3

Guitar Part

e|-----------------------------------------------------------------|
B|-----------------------------------------------------------------|
G|------7-----------------5----------------------------------------|
D|------7-------3---------5--------5-------------------------------|
A|--5-5-5-5--3-3-3-3--3-3-3-3------5-------------------------------|
E|-----------1-1-1-1-----------3-3-3-3-----------------------------|

e|---------------------------------------------------------------------------|
B|---------------------------------------------------------------------------|
G|---------------------------------------------------------------------------|
D|-3-3-3-3-3-3-3-3-5-5-5-5-5-5-5-5-------------------------------------------|
A|-3-3-3-3-3-3-3-3-5-5-5-5-5-5-5-5-------------------------------------------|
E|-1-1-1-1-1-1-1-1-3-3-3-3-3-3-3-3-------------------------------------------|

Chorus play thoughout twice

e|---------------------------------------------------------------------------|
B|---------------------------------------------------------------------------|
G|--------------------5-5-5-5-5-5-5-5-5-7-7-7-7-7-7-7-7----------------------|
D|--3-3-3-3-3-3-3-3-3-5-5-5-5-5-5-5-5-5-7-7-7-7-7-7-7-7-7-7-7-7-7-7-7--------|
A|--3-3-3-3-3-3-3-3-3-3-3-3-3-3-3-3-3-5-5-5-5-5-5-5-5-5-7-7-7-7-7-7-7--------|
E|--1-1-1-1-1-1-1-1-1-----------------------------------5-5-5-5-5-5-5--------|

e|---------------------------------------------------------------------------|
B|---------------------------------------------------------------------------|
G|--------------------5-5-5-5-5-5-5-5-5--------------------------------------|
D|--3-3-3-3-3-3-3-3-3-5-5-5-5-5-5-5-5-5-5-5-5-5-5-5-5-5-5-5-5-5-5-5-5-5------|
A|--3-3-3-3-3-3-3-3-3-3-3-3-3-3-3-3-3-5-5-5-5-5-5-5-5-5-5-5-5-5-5-5-5-5------|
E|--1-1-1-1-1-1-1-1-1-------------------3-3-3-3-3-3-3-3-3-3-3-3-3-3-3-3------|

Breakdown Part 1

e|---------------------------------------------------------------------------|
B|---------------------------------------------------------------------------|
G|---------------------------------------------------------------------------|
D|-5-5---5-5---5-5---5-5-----------------------------------------------------|
A|-3-3---3-3---3-3---3-3-----------------------------------------------------|
E|-3-3---3-3---3-3---3-3-----------------------------------------------------|

Breakdown Part 2

e|---------------------------------------------------------------------------|
B|---------------------------------------------------------------------------|
G|---------------------------------------------------------------------------|
D|-5-5--5--5-5--5--5-5--5--5-5-----------------------------------------------|
A|-3-3--3--3-3--3--3-3--3--3-3-----------------------------------------------|
E|-3-3--3--3-3--3--3-3--3--3-3-----------------------------------------------|

Piano part 

e|-----------------------------------------------------------------------|
B|-----------------------------------------------------------------------|
G|-7---7----5---5-----9----9------7-----7--------------------------------|
D|---0---0----5---5-----10---10-----9-----9------------------------------|
A|---5---5----3---3-----12---12-----10----10-----------------------------|
E|-----------------------------------------------------------------------|x3

Guitar Part

e|-----------------------------------------------------------------|
B|-----------------------------------------------------------------|
G|------7-----------------5----------------------------------------|
D|------7-------3---------5--------5-------------------------------|
A|--5-5-5-5--3-3-3-3--3-3-3-3------5-------------------------------|
E|-----------1-1-1-1-----------3-3-3-3-----------------------------|

e|---------------------------------------------------------------------------|
B|---------------------------------------------------------------------------|
G|---------------------------------------------------------------------------|
D|-3-3-3-3-3-3-3-3-5-5-5-5-5-5-5-5-------------------------------------------|
A|-3-3-3-3-3-3-3-3-5-5-5-5-5-5-5-5-------------------------------------------|
E|-1-1-1-1-1-1-1-1-3-3-3-3-3-3-3-3-------------------------------------------|

Chorus Play throughout twice

e|---------------------------------------------------------------------------|
B|---------------------------------------------------------------------------|
G|--------------------5-5-5-5-5-5-5-5-5-7-7-7-7-7-7-7-7-9-9-9-9-9-9-9--------|
D|--3-3-3-3-3-3-3-3-3-5-5-5-5-5-5-5-5-5-7-7-7-7-7-7-7-7-9-9-9-9-9-9-9--------|
A|--3-3-3-3-3-3-3-3-3-3-3-3-3-3-3-3-3-5-5-5-5-5-5-5-5-5-7-7-7-7-7-7-7--------|
E|--1-1-1-1-1-1-1-1-1--------------------------------------------------------|



e|---------------------------------------------------------------------------|
B|---------------------------------------------------------------------------|
G|--------------------5-5-5-5-5-5-5-5-5--------------------------------------|
D|--3-3-3-3-3-3-3-3-3-5-5-5-5-5-5-5-5-5-5-5-5-5-5-5-5-5-5-5-5-5-5-5-5-5------
A|--3-3-3-3-3-3-3-3-3-3-3-3-3-3-3-3-3-5-5-5-5-5-5-5-5-5-5-5-5-5-5-5-5-5------|
E|--1-1-1-1-1-1-1-1-1-------------------3-3-3-3-3-3-3-3-3-3-3-3-3-3-3-3------|

Solo

e|---------------------------------------------------12-12-------------------|
B|---------------------------------------------15-15-------15-13----12-13-15-|
G|-------5-7-9-9-7-5----7-7-5-4-5p4------14-14-------------------12----------|
D|--7--7-------------5--------------7----------------------------------------|
A|---------------------------------------------------------------------------|
E|---------------------------------------------------------------------------|

Last chorus

e|---------------------------------------------------------------------------|
B|---------------------------------------------------------------------------|
G|--------------------5-5-5-5-5-5-5-5-5-7-7-7-7-7-7-7-7-9-9-9-9-9-9-9--------|
D|--3-3-3-3-3-3-3-3-3-5-5-5-5-5-5-5-5-5-7-7-7-7-7-7-7-7-9-9-9-9-9-9-9--------|
A|--3-3-3-3-3-3-3-3-3-3-3-3-3-3-3-3-3-5-5-5-5-5-5-5-5-5-7-7-7-7-7-7-7--------|
E|--1-1-1-1-1-1-1-1-1--------------------------------------------------------|

e|---------------------------------------------------------------------------|
B|---------------------------------------------------------------------------|
G|--------------------5-5-5-5-5-5-5-5-5--------------------------------------|
D|--3-3-3-3-3-3-3-3-3-5-5-5-5-5-5-5-5-5-5-5-5-5-5-5-5-5-5-5-5-5-5-5-5-5------|
A|--3-3-3-3-3-3-3-3-3-3-3-3-3-3-3-3-3-5-5-5-5-5-5-5-5-5-5-5-5-5-5-5-5-5------|
E|--1-1-1-1-1-1-1-1-1-------------------3-3-3-3-3-3-3-3-3-3-3-3-3-3-3-3------|

Outro

e|-----------0----12h-------------------------8-------------5-------------------|
B|------1--3---------12h------------------3h5---8-------------5-----------------|
G|-----------------------12------------2h4--------------2-----------------------|
D|-2------------------------14----------------------0h2--------------5--7--9----|
A|---3-------------------------14----0-------------------------------5--7--9----|
E|-------------------------------------------------------------------3--5--7----|



************************************

| /   slide up
| \   slide down
| h   hammer-on
| p   pull-off
| ~   vibrato
| +   harmonic
| x   Mute note
| b   Bend
| pb  Pre-bend
| br  Bend release
| pbr Pre-bend release
| brb Bend release bend

************************************
Tap to rate this tab
 
# A B C D E F G H I J K L M N O P Q R S T U V W X Y Z