Song name
# A B C D E F G H I J K L M N O P Q R S T U V W X Y Z

Elliot Minor - Parallel Worlds tab

All the tabs I've seen so far for this song have had parts that were right, but never 
whole thing...sooo, I've played along the actual song a thousand times, and this is right.


* - let ring
# - stop ring
/ - slide
h - hammer on
p - pull off
. - palm mute

Intro:

E---------------------------------------------------------------------|
B---------------------------------------------------------------------|
G-6--6666--6666--6666-------------------------------------------------|
D-6--6666--6666--6666-------------------------------------------------|
A-4--4444--4444--4444-------------------------------------------------|
E---------------------------------------------------------------------|
  *     #     *     #

Intro/Chorus:

E--5-4-5-5--2-2-2-2---------------------------------------------------|
B--------------5-5-5--2-2-2h3p2---------------------------------------|
G------------------------------4--------------------------------------|
D---------------------------------------------------------------------|
A---------------------------------------------------------------------|
E---------------------------------------------------------------------|


E--17-16-17-17--14-14--14--14-----------------------------------------|
B-------------------17--17--17--14-14-14h15p14------------------------|
G----------------------------------------------16-14-13-13-14---------|
D---------------------------------------------------------------------|
A---------------------------------------------------------------------|
E---------------------------------------------------------------------|


E---------------------------------------------------------------------|
B---------------------------------------------------------------------|
G---------------------------------------------------------------------|
D-----------------2-(x16)-4-(x16)-------------------------------------|
A-4-(x16)-2-(x16)-0-------2-------------------------------------------|
E-2-------0-----------------------------------------------------------|
  .       .       .       .

E---------------------------------------------------------------------|
B---------------------------------------------------------------------|
G---------------------------------------------------------------------|
D-----------------2-(x16)-4-(x8)-44444444-----------------------------|
A-4-(x16)-2-(x16)-0-------2------22222222-----------------------------|
E-2-------0-----------------------------------------------------------|
  .       .       .       .

Pre-Chorus(Listen to the song for the strumming):

E---------------------------------------------------------------------|
B---------------------------------------------------------------------|
G-7--------2---7-----6------------------------------------------------|
D-7--4--2--2---7--4--6------------------------------------------------|
A-5--4--2--0---5--4--4------------------------------------------------|
E----2--0---------2---------------------------------------------------|


Chorus:

E--5-4-5-5--2-2-2-2---------------------------------------------------|
B--------------5-5-5--2-2-2h3p2---------------------------------------|
G------------------------------4--------------------------------------|
D---------------------------------------------------------------------|
A---------------------------------------------------------------------|
E---------------------------------------------------------------------|


E--17-16-17-17--14-14--14--14-----------------------------------------|
B--------------------17--17--17--14-14-14h15p14-----------------------|
G-----------------------------------------------16-14-13-13-14--------|
D---------------------------------------------------------------------|
A---------------------------------------------------------------------|
E---------------------------------------------------------------------|


E---------------------------------------------------------------------|
B---------------------------------------------------------------------|
G--4-4-4-4--6-6-6-6--7-7-7-7--9-9-9-9---------------------------------|
D--x-x-x-x--x-x-x-x--x-x-x-x--x-x-x-x---------------------------------|
A--2-2-2-2--4-4-4-4--5-5-5-5--7-7-7-7---------------------------------|
E---------------------------------------------------------------------|


E---------------------------------------------------------------------|
B---------------------------------------------------------------------|
G----------------------------7-7-7--6-6-6--4-4-4--6-6-6---------------|
D--7-7--4-4-4--7-7-7--4-4-4--7-7-7--6-6-6--4-4-4--6-6-6---------------|
A--7-7--4-4-4--7-7-7--4-4-4--5-5-5--4-4-4--2-2-2--4-4-4---------------|
E--5-5--2-2-2--5-5-5--2-2-2-------------------------------------------|


E---------------------------------------------------------------------|
B---------------------------------------------------------------------|
G------------------------------7-7-7--6-6-6--4-4-4--6-6-6-------------|
D--7-7-7--4-4-4--7-7-7--4-4-4--7-7-7--6-6-6--4-4-4--6-6-6-------------|
A--7-7-7--4-4-4--7-7-7--4-4-4--5-5-5--4-4-4--2-2-2--4-4-4-------------|
E--5-5-5--2-2-2--5-5-5--2-2-2-----------------------------------------|

Palm Mute:

E---------------------------------------------------------------------|
B---------------------------------------------------------------------|
G---------------------------------------------------------------------|
D----------------------------------------------------------2-4-2------|
A--------------------------2-4-2--------2------2-------2---------4----|
E--2-2-5-2-2-2-5-2-2-2-5-2-------4--0-0---0-0-0--0-0-0---0------------|


E---------------------------------------------------------------------|
B---------------------------------------------------------------------|
G---------------------------------------------------------------------|
D------2-------2-------2-------2--------------------------------------|
A--0-0---0-0-0---0-0-0---0-0-0---0---2-2-5-2-2-2-5-2-2-2-5-2-2-2-5-2--|
E---------------------------------------------------------------------|

:Stop Palm Muting

Pre-Chorus(Listen to the song for the strumming):

E---------------------------------------------------------------------|
B---------------------------------------------------------------------|
G-7--------2---7-----6------------------------------------------------|
D-7--4--2--2---7--4--6------------------------------------------------|
A-5--4--2--0---5--4--4------------------------------------------------|
E----2--0---------2---------------------------------------------------|


Chorus:

E--5-4-5-5--2-2-2-2---------------------------------------------------|
B--------------5-5-5--2-2-2h3p2---------------------------------------|
G------------------------------4--------------------------------------|
D---------------------------------------------------------------------|
A---------------------------------------------------------------------|
E---------------------------------------------------------------------|


E--17-16-17-17--14-14--14--14-----------------------------------------|
B--------------------17--17--17--14-14-14h15p14-----------------------|
G-----------------------------------------------16-14-13--------------|
D---------------------------------------------------------------------|
A---------------------------------------------------------------------|
E---------------------------------------------------------------------|


E---------------------------------------------------------------------|
B---------------------------------------------------------------------|
G--4-4-4-4--6-6-6-6--7-7-7-7--9-9-9-9---------------------------------|
D--x-x-x-x--x-x-x-x--x-x-x-x--x-x-x-x---------------------------------|
A--2-2-2-2--4-4-4-4--5-5-5-5--7-7-7-7---------------------------------|
E---------------------------------------------------------------------|


Solo:

E---------------------------------------------------------------------|
B---------------------------------------------------------------------|
G---------------------------------------------------------------------|
D----------2-4-2-4-4-4-6-4-2-4-2h4p2----------------------------------|
A----0-2-4---------------------------4-2-2-2-4-2-4--------------------|
E--2------------------------------------------------------------------|


E---------------------------------------------------------------------|
B---------------------------------------------------------------------|
G---------------------------------------------------------------------|
D--2-4-4-4-6-4-2-4-2h4p2----------------------------------------------|
A------------------------4-2---(Pickslide)----------------------------|
E---------------------------------------------------------------------|


E----------------------------------------------------------------------|
B--5h7p5--7h9p7--9h10p9--10h12p10--12h14p12-14-14-12-10-12-10-10-12-12-|
G----------------------------------------------------------------------|
D----------------------------------------------------------------------|
A----------------------------------------------------------------------|
E----------------------------------------------------------------------|


E--10h12-10h12-10h12-10h12-10h12-10h12-10h12-10h12--------------------|
B---------------------------------------------------------------------|
G---------------------------------------------------------------------|
D---------------------------------------------------------------------|
A---------------------------------------------------------------------|
E---------------------------------------------------------------------|


E--9h12-9h12-9h12-9h12-9h12-9h12-9h12-9h12--14------------------------|
B---------------------------------------------------------------------|
G---------------------------------------------------------------------|
D---------------------------------------------------------------------|
A---------------------------------------------------------------------|
E---------------------------------------------------------------------|


E---------------------------------------------------------------------|
B---------------------------------------------------------------------|
G--7-7------------------2-2-2-2-2-------------------------------------|
D--7-7--2-2--2-2-2-2-2--2-2-2-2-2-------------------------------------|
A--5-5--4-4--2-2-2-2-2--0-0-0-0-0-------------------------------------|
E-------4-4--0-0-0-0-0------------------------------------------------|


E---------------------------------------------------------------------|
B---------------------------------------------------------------------|
G--7-----6------------------------------------------------------------|
D--7--4--6------------------------------------------------------------|
A--5--4--4------------------------------------------------------------|
E-----2---------------------------------------------------------------|

Chorus:

E--5-4-5-5--2-2-2-2---------------------------------------------------|
B--------------5-5-5--2-2-2h3p2---------------------------------------|
G------------------------------4--------------------------------------|
D---------------------------------------------------------------------|
A---------------------------------------------------------------------|
E---------------------------------------------------------------------|


E--17-16-17-17--14-14--14--14-----------------------------------------|
B--------------------17--17--17--14-14-14h15p14-----------------------|
G-----------------------------------------------16-14-13--------------|
D---------------------------------------------------------------------|
A---------------------------------------------------------------------|
E---------------------------------------------------------------------|


E---------------------------------------------------------------------|
B---------------------------------------------------------------------|
G--4-4-4-4--6-6-6-6--7-7-7-7--9-9-9-9--11-11-11-11--13-13-13-13-------|
D--x-x-x-x--x-x-x-x--x-x-x-x--x-x-x-x---x--x--x--x---x--x--x--x-------|
A--2-2-2-2--4-4-4-4--5-5-5-5--7-7-7-7---9--9--9--9--11-11-11-11-------|
E---------------------------------------------------------------------|


E---------------------------------------------------------------------|
B---------------------------------------------------------------------|
G--14-14-14-14--16-16-16-16--18-18-18-18---18-18----------------------|
D---x--x--x--x---x--x--x--x---x--x--x--x----x--x----------------------|
A--12-12-12-12--14-14-14-14--16-16-16-16---16-16----------------------|
E---------------------------------------------------------------------|
                                       *       #


There it is...have fun with it, and play along with the real song.
Tap to rate this tab
# A B C D E F G H I J K L M N O P Q R S T U V W X Y Z