Guitaretab - guitar tabs
Song name
# A B C D E F G H I J K L M N O P Q R S T U V W X Y Z

Elliot Minor - The White One Is Evil tab

Not sure if it's 100% correct but when I play it sounds near enough

email me if you find anywhere to correct:
luvmecuzimkwl@hotmail.com

Intro/Verse 
e-----------------------------------------------|
B-----------------------------------------------|
G12----12-8----8-10----10-----------------------|
D12----12-8----8-10----10----8-8--7-------------|
A10----10-6----6-8-----8-----8-8--7-------------|
E----------------------------6-6--5-------------|

e-----------------------------------------------|
B-----------------------------------------------|
G12----12-10-8----8-8-10---10-10----------------|
D12----12-10-8----8-8-10---10-10----8-8--7-7----|  
A10----10-8--6----6-6-8----8--8-----8-8--7-7----|
E-----------------------------------6-6--5-5----|

Pre-chorus
e-----------------------------------------------|
B-----------------------------------------------|
G12----12-10-8----8-8-10---10-10----------------|
D12----12-10-8----8-8-10---10-10----8-8--7-7----|  
A10----10-8--6----6-6-8----8--8-----8-8--7-7----|
E-----------------------------------6-6--5-5----|

e-----------------------------------------------|
B-----------------------------------------------|
G12----12-10-8----8-8-10---10-10----77777777----|
D12----12-10-8----8-8-10---10-10----55555555----|
A10----10-8--6----6-6-8----8--8-----------------|
E-----------------------------------------------|

Chorus
e-----------------------------------------------|
B-----------------------------------------------|
G---------88888888----------77777777------------|
D55555555-88888888-88888888-77777777------------|
A55555555-66666666-88888888-55555555------------|
E33333333----------66666666---------------------|

e-----------------------------------------------|
B-----------------------------------------------|
G---------88--1010----------77777777-12---------|
D55555555-88--1010-88888888-77777777-12---------|
A55555555-66--8-8--88888888-55555555-10---------|
E33333333----------66666666---------------------|

Verse 
e-----------------------------------------------|
B-----------------------------------------------|
G12----12-10-8----8-8-10---10-10----------------|
D12----12-10-8----8-8-10---10-10----8-8--7-7----|  
A10----10-8--6----6-6-8----8--8-----8-8--7-7----|
E-----------------------------------6-6--5-5----|

e-----------------------------------------------|
B-----------------------------------------------|
G12----12-8----8-10----10-77777777--------------|
D12----12-8----8-10----10-77777777--------------|
A10----10-6----6-8-----8--55555555--------------|
E-----------------------------------------------|

Pre-chorus
e-----------------------------------------------|
B-----------------------------------------------|
G12----8------10----7---------------------------|
D12----8------10----7---------------------------|
A10x8--6x8----8-x8--5x8-------------------------|
E-----------------------------------------------|
[ Tab from: http://www.guitaretab.com/e/elliot-minor/96721.html ]
Chorus
e-----------------------------------------------|
B-----------------------------------------------|
G---------88888888----------77777777------------|
D55555555-88888888-88888888-77777777------------|
A55555555-66666666-88888888-55555555------------|
E33333333----------66666666---------------------|

e-----------------------------------------------|
B-----------------------------------------------|
G---------88--1010----------77777777------------|
D55555555-88--1010-88888888-77777777------------|
A55555555-66--8-8--88888888-55555555------------|
E33333333----------66666666---------------------|

Verse 
e-----------------------------------------------|
B-----------------------------------------------|
G8---------7----12------------------------------|
D8----8----7----12------------------------------|  x3
A6----8----5----10------------------------------|
E-----6-----------------------------------------|


Below is played underneath the solo
Unsure of what the actual solo is though

e-----------------------------------------------|
B-----------------------------------------------|
G12----12-10-8----8-8-10---10-10----------------|
D12----12-10-8----8-8-10---10-10----8-8--7-7----|  
A10----10-8--6----6-6-8----8--8-----8-8--7-7----|
E-----------------------------------6-6--5-5----|

Verse
e-----------------------------------------------|
B-----------------------------------------------|
G12----12-10-8----8-8-10---10-10----------------|
D12----12-10-8----8-8-10---10-10----8-8--7-7----|  
A10----10-8--6----6-6-8----8--8-----8-8--7-7----|
E-----------------------------------6-6--5-5----|

e-----------------------------------------------|
B-----------------------------------------------|
G12----12-10-8----8-8-10---10-10----77777777----|
D12----12-10-8----8-8-10---10-10----55555555----|
A10----10-8--6----6-6-8----8--8-----------------|
E-----------------------------------------------|

Pre-chorus
e-----------------------------------------------|
B-----------------------------------------------|
G12----8------10-------------7------------------|
D12----8------10------8------7------------------|
A10x8--6x8----8-x8----8------5x4----------------|
E---------------------6x4-----------------------|

e-----------------------------------------------|
B-----------------------------------------------|
G12----8------10----7---------------------------|
D12----8------10----7---------------------------|
A10x8--6x8----8-x8--5x8-------------------------|
E-----------------------------------------------|

violin and keyboard instrumental

Chorus
e-----------------------------------------------|
B-----------------------------------------------|
G---------88888888----------77777777------------|
D55555555-88888888-88888888-77777777------------|
A55555555-66666666-88888888-55555555------------|
E33333333----------66666666---------------------|

e-----------------------------------------------|
B-----------------------------------------------|
G---------88--1010----------77777777-5----------|
D55555555-88--1010-88888888-77777777-5----------|
A55555555-66--8-8--88888888-55555555-3----------|
E33333333----------66666666---------------------|

keyboard outro





Related for The White One Is Evil tab
Advertisement will be closed in 10 seconds