Song name
# A B C D E F G H I J K L M N O P Q R S T U V W X Y Z

Elliot Yamin - Wait For You tab

Wait for you intro..

1.            F
E:--8-7-----3~---------3~--|
B:------8------------------|
G:--------9---------0~-----|
D:-------------------------|
A:----------------3~-------|
E:--------------1~---------|
    G            Am
E:---------0~--------------|
B:--------(5)~-------------|
G:-------------------------|
D:------5~-----------7~----|
A:----5~-----------7~------|
E:--3~-----------5~--------|

2.             F
E:--8-7-----3~---------3~--|
B:------8------------------|
G:--------9---------0~-----|
D:-------------------------|
A:----------------3~-------|
E:--------------1~---------|
    G            Am
E:---------0---------------|
B:------3-(5)--------------|
G:-------------------------|
D:------5~-----------7~----|
A:----5~-----------7~------|
E:--3~-----------5~--------|

3.             F
E:--8-7-----3~---------3~--|
B:------8------------------|
G:--------9---------0~-----|
D:-------------------------|
A:----------------3~-------|
E:--------------1~---------|
    G            Am             F                G
E:---------0~----------------3~---------------------|
B:--------(5)~---------------------------1---3~-----|
G:----------------------4-5----------0---2-------4~-|
D:------5~-----------7~--------------------------5~-|
A:----5~-----------7~--------------3----------------|
E:--3~-----------5~--------------1---------------3~-|

ace_14206@yahoo.com.ph
\m/(//o)\m/
Tap to rate this tab
# A B C D E F G H I J K L M N O P Q R S T U V W X Y Z