Song name
# A B C D E F G H I J K L M N O P Q R S T U V W X Y Z

Elliot Yamin - One Word tab

Gandang kanta 'to! Pramis! Enjoy playing!
I-dedicate ko sana sa GF ko, si jackielyn...
Happy 2nd Monthsary mah!
I love You!

para sa comments sa tab na 'to, paki-mail sa toy_fb@yahoo.com kung may time kayo... tenchu!

Intro:
e|-----------------------------------------|
B|------7--------7--------7---------7------|
G|--------7--------7--------7---------7----|
D|----7----7---7----7---7----7----7----7---|
A|-5~~------5~~------5~~-------5~~---------|
E|-----------------------------------------|

e|-----------------------------------------|
B|------5--------5--------5---------5------|
G|--------6--------6--------6---------6----|
D|----6----6---6----6---6----6----6----6---|
A|-4~~------4~~------4~~-------4~~---------|
E|-----------------------------------------|

Stanza 1: (do guitar intro)
Im so into what you're giving and it feels so good to me
You're beautiful and critical, its hard to live without you, baby
When I wake up in the morning all I wanna see is you
Heaven's blessing that he sent me, unconditional and true


Pre-Refrain:
e|-----------------------------------------|
B|------3--------5--------7---------7------|
G|--------4--------6--------7---------6----|
D|----4----4---6----6---7----7----7----7---|
A|-2~~------4~~------5~~-------5~~---------|
E|-----------------------------------------|

Girl, you mean the world to me and I hope you understand
I would give you anything and I'll do the best I can
To make you see what I see...


Chorus: D-C#m(3x)-DM7

One word... Is all I need to say exactly how I feel
One word... A single word that's from the heart and keeps it real
One word... And baby you know this one fits you to a tee
One word... All I can say is amazing...


Stanza 2:
(One word)... Always there when I was going through all kinds of changes
You kept me lifted, said I'm gifted and you know I'm gonna make it
So when you're tired and frustrated you can always count on me
Girl, I love you and I want you to know I'll be all you need


Pre-Refrain 2:
Girl, you gave the world to me and you made me understand
You would give me anything and you'd do the best you can
You are what I hope to be...

(Repeat Chorus)

Bridge:(do pre-refrain guitar pattern)

One word... I just wanna celebrate you, baby
And thank the lord for sending you down to me
And your love's the reason why I believe
You're amazing, so amazing, just amazing to me...


All I can say is amazing...
(Repeat Chorus)...
Tap to rate this tab
# A B C D E F G H I J K L M N O P Q R S T U V W X Y Z