Song name
# A B C D E F G H I J K L M N O P Q R S T U V W X Y Z

Elliot Yamin - Know Better Acoustic tab

-------------------------------------------------------------------------------
			     Know Better - Elliot Yamin
-------------------------------------------------------------------------------
Tabbed by:Emerson S
Email:emersays@yahoo.com

*This is the live/acoustic version

Tuning: EADGBe

Intro/Verse: mellow picking

                               A
e|--0-----------0-----------2-------0-----------0-----------2----------------|
B|------4-----------4-----------4-------4-----------4-----------4------------|
G|----------4-----------4-------------------4-----------4--------------------|
D|---------------------------------------------------------------------------|
A|--0-------------------------------0----------------------------------------|
E|---------------------------------------------------------------------------|
                               C#m7
e|--0-----------0-----------2-------0-----------0-----------2----------------|
B|------4-----------4-----------4-------4-----------4-----------4------------|
G|----------4-----------4-------------------4-----------4--------------------|
D|---------------------------------------------------------------------------|
A|--4-------------------------------4----------------------------------------|
E|---------------------------------------------------------------------------|

Pre-Chorus - fast picking
I didn't have to do it, but i put all my heart in it...
                      A
e|-------0--------------------------------------|
B|-----4---4---4--------------------------------|
G|---4-------4----------------------------------| X4
D|----------------------------------------------|
A|-0--------------------------------------------|
E|----------------------------------------------|

Said you loved me but you didnt... and you did it a again...
                      C#m7
e|-------0--------------------------------------|
B|-----4---4---4--------------------------------|
G|---4-------4----------------------------------| X4
D|----------------------------------------------|
A|-4--------------------------------------------|
E|----------------------------------------------|
                      Repeat
     
Chorus: Strumming
Chorus is just A and C#m7 throughout
    
After all that we been through, you still wanna let me
       A      
e|-----5-----|
B|-----5-----|
G|-----6-----|
D|-----7-----|
A|-----7-----|
E|-----5-----|

Down... 
      C#m7
e|-----4-----|
B|-----5-----|
G|-----4-----|
D|-----6-----|
A|-----4-----|
E|-----X-----|

so on so forth... 
Tap to rate this tab
# A B C D E F G H I J K L M N O P Q R S T U V W X Y Z