Song name
# A B C D E F G H I J K L M N O P Q R S T U V W X Y Z

Elliot Yamin - Wait For You tab

-------------------------------------------------------------------------------
			     Wait For you
----------------------------------------------------------------------------
Tabbed by:-haiphule
Email:phule717@gmail.com
This is my version. Feel free to change some notes when necessary.
Tuning:Standard
Intro
e|5-4-0--2-0-1---------------------------------------------------------------|
B|-----2------0-2------------------------------------------------------------|
G|---------------------------------------------------------------------------|
D|---------------------------------------------------------------------------|
A|---------------------------------------------------------------------------|
E|---------------------------------------------------------------------------|
3rd time of intro
e|------1--------------------------------------------------------------------|
B|0-2-0---0-2-1--------------------------------------------------------------|
G|---------------------------------------------------------------------------|
D|---------------------------------------------------------------------------|
A|---------------------------------------------------------------------------|
E|---------------------------------------------------------------------------|
After that just do F   G   Am for verse
Plucking   F= EDG    G= EDGe    Am= EDGegb

Strum Bridge   C F 


Chorus

e|---------------------------------------------------------------------------|
B|---------------------------------------------------------------------------|
G|-5-4-0----2-0--------------------------------------------------------------|
D|--------2-----2------------------------------------------------------------|
A|---------------------------------------------------------------------------|
E|---------------------------------------------------------------------------|
Tap to rate this tab
 
# A B C D E F G H I J K L M N O P Q R S T U V W X Y Z