Song name
# A B C D E F G H I J K L M N O P Q R S T U V W X Y Z

Elliott Smith - Needles In The Hay tab

Needle In the Hay
by Elliott Smith
Tab by AnEpitonic

Intro

 E|---------------------------------------|
 B|---------------------------------------|
 G|----0-0-0-0----------------------------|
 D|----3-3-3-3-2-2-2-2-2-2-2-2-0-0-0-0----|
 A|------------0-0-0-0-3-3-3-3-2-2-2-2----|
 E|----------------------------0-0-0-0----|

 E|-------------------------------------------------------|
 B|-------------------------------------------------------|
 G|----0-0-0-0---------0-0-0-0----------------------------|
 D|----3-3-3-3-2-2-2-2-3-3-3-3-2-2-2-2-2-2-2-2-0-0-0-0----|
 A|------------0-0-0-0---------0-0-0-0-3-3-3-3-2-2-2-2----|
 E|--------------------------------------------0-0-0-0----|


 E|-------------------------------------------------------------------|
 B|-------------------------------------------------------------------|
 G|----0-0-0-0---------0-0-0-0----------------------------------------|
 D|----3-3-3-3-2-2-2-2-3-3-3-3-2-2-2-2-2-2-2-2-0-0-0-0-0-0-0-0--------|
 A|------------0-0-0-0---------0-0-0-0-3-3-3-3-2-2-2-2-2-2-2-2--------|
 E|--------------------------------------------0-0-0-0-0-0-0-0--------|

 E|----------------------------------------------------------------------|
 B|---1-1-1-1-1-1-1-1----------------------------------------------------|
 G|-1-2-2-2-2-2-2-2-2-----------------2-2-2-2-2-2-2-2--------------------|
 D|-2-2-2-2-2-2-2-2-2-2-2-2-2-2-2-2-2-3-3-3-3-3-3-3-3-2-2-2-2-2-2-2-2----|
 A|-------------------3-3-3-3-3-3-3-3-3-3-3-3-3-3-3-3-0-0-0-0-0-0-0-0----|
 E|-------------------0-0-0-0-0-0-0-0------------------------------------|

That is most of the song, and the rest will come later.

*AnEpitonic
Tap to rate this tab
# A B C D E F G H I J K L M N O P Q R S T U V W X Y Z