Song name
# A B C D E F G H I J K L M N O P Q R S T U V W X Y Z

Elliott Smith - Thirteen tab

(capo on 3rd fret)
verse: (play for all of the verses)

  G       Cadd9         G       Cadd9
E---------------------|---------------------|
B---------------------|---------------------|
G---0---0---0-------0-|---0---0---0-------0-|
D-----0-------(0)h2---|-----0-------(0)h2---|
A---------3-----------|---------3-----------|
E-3-------------------|-3-------------------|


  G       Cadd9         G       Cadd9
E---------------------|---------------------|
B---------------------|---------------------|
G---0---0---0-------0-|---0---0---0-------0-|
D-----0-------(0)h2---|-----0-------(0)h2---|
A---------3-----------|---------3-----------|
E-3-------------------|-3-------------------|


  G       Cadd9         G       Cadd9
E---------------------|---------------------|
B---------------------|---------------------|
G---0---0---0-------0-|---0---0---0-------0-|
D-----0-------(0)h2---|-----0-------(0)h2---|
A---------3-----------|---------3-----------|
E-3-------------------|-3-------------------|


  G       Cadd9         G/B     Em7
E---------------------|-----------------|
B---------------------|-----------------|
G---0---0---0-------0-|---0---0---0-----|
D-----0-------(0)h2---|-----0---------0-|
A---------3-----------|-2-----------2---|
E-3-------------------|---------0-------|

  C       G/B       Am7
E-----------------|-----------------|-----------------|
B-----------------|-------1-------3-|-------1---------|
G---0---0-----0---|---0-------0-----|---0-------0-----|
D-----2-----0---0-|-----2-------2---|-----2-------2-4-|
A-3-------2-------|-0-------0-------|-0-------0-------|
E-----------------|-----------------|-----------------|

  Em7             Am7
E-----------------|-----------------|
B-------0-------0-|-------1-------0-|
G---0-------0-----|---0-------0-----|
D-----2-------2---|-----2-------2---|
A-----------------|-0-------0-------|
E-0-------0-------|-----------------|



  Em7                 Am7
E-----------------|-----------------|-----------------|
B-------0-------0-|-------1-------3-|-------1---------|
G---0-------0-----|---0-------0-----|---0-------0-----|
D-----2-------2---|-----2-------2---|-----2-------2-4-|
A-----------------|-0-------0-------|-0-------0-------|
E-0-------0-------|-----------------|-----------------|


  D5      C             G/B       Am7
E-----------------|---------|-----------------|
B-------3-------3-|-------3-|-------1-------3-|
G---0---0---0---0-|---0---0-|---0-------0-----|
D-0---0-------0---|-----0---|-----2-------2---|
A---------3-------|-2-------|-0-------0-------|
E-----------------|---------|-----------------|


  Am7
E-----------------|
B-------1---------|
G---0-------0-----|
D-----2-------2-4-|
A-0-------0-------|
E-----------------|





Solo

 G       Cadd9         G       Cadd9
E---------------------|------------------|
B---------------------|------------------|
G---0---0---0-------0-|---0---0---0-0----|
D-----0-------(0)h2---|-----0-------0----|
A---------3-----------|------------------|
E-3-------------------|-3-------3--------|


  A7                                                 Am7
E----------------|----------------|----------------|-----------------|
B-------3---3---0|-2-2---2---2---0|-1-1---1---1---0|-0-0---0---0---0-|
G---0---0---0---0|---0---0---0---0|---0---0---0---0|---0---0---0---0-|
D----------------|----------------|----------------|-----------------|
A-----2-------2--|-----2-------2--|-----2-------2--|-----2-----------|
E-0-------0------|-0-------0------|-0-------0------|-0-------2---3---|



  A7
E-----------------|----------------|----------------|----------------|
B-------3---3---0-|-2-2---2---2---0|-3-3---3---3---2|---2---2---2---2|
G---0---0---0---0-|---0---0---0---0|---0---0---0----|---0---0---0---0|
D-----2-------2---|-----2-------2--|-----2-------2--|-----2-------2--|
A-0-------0-------|-0-------0------|-0--------------|-0-------0------|
E-----------------|----------------|----------------|----------------|



(I know this last line of the solo is wrong but it still sounds pretty legit...)

  D
E----------------|----------------|----------------|-----------------|
B---0---0---0---0|-1-1---1---1---1|-0-0---0---0---1|---1-------------|
G----------------|----------------|----------------|-----------------|
D-----4-------4--|-----4-------4--|-----4-------4--|-----4-----4---4-|
A-5-------5------|-5-------5------|-5-------5------|-5---------------|
E----------------|----------------|----------------|---------0---2---|
Tap to rate this tab
 
# A B C D E F G H I J K L M N O P Q R S T U V W X Y Z