Song name
# A B C D E F G H I J K L M N O P Q R S T U V W X Y Z

Elliott Smith - Needle In The Hay chords

Highlighted       Show chord diagrams
“Needle In The Hay” 
By: Elliott Smith
Album: Elliott Smith
Label: Kill Rock Stars
Year: 1994
					

					Intro
e|-----------------|-----------------|------------------|
B|-----------------|-----------------|------------------|
G|-0-0-0-0-------- |---------2-2-2-2 |-0-0-0-0----------|
D|-3-3-3-3-2-2-2-2-|-0-0-0-0-2-2-2-2-| 3-3-3-3-2-2-2-2--|
A|---------3-3-3-3-|-2-2-2-2-0-0-0-0-|---------0-0-0-0--|
E|-----------------|-0-0-0-0---------|------------------|

                                          
e|-----------------|-----------------|
B|-----------------|-----------------|
G|-0-0-0-0-------- |-----------------|
D|-3-3-3-3-2-2-2-2-|-0-0-0-0-0-2-2-2-|
A|---------3-3-3-3 |-2-2-2-2-0-0-0-0-|
E|-----------------|-0-0-0-0---------| x2

					 Verse

      F           Am   F        C      E          Am
   Your hand on his arm, haystack charm around your neck
      F             Am     F            C           E             Am
   Strung out and thin, calling some friend trying to cash some check
        F      Am    F                  E         Am      
   He's acting dumb, that's what you've come to expect

					 Chorus
               
                 Am       C 
   Needle in the hay
                 F        Am
   Needle in the hay
                 Am       C  
   Needle in the hay
                 F        Am
   Needle in the hay
Tap to rate this tab
# A B C D E F G H I J K L M N O P Q R S T U V W X Y Z