Song name
# A B C D E F G H I J K L M N O P Q R S T U V W X Y Z

Elliott Smith - Pretty Mary K tab

Elliott Smith - Pretty Mary K (New Moon)

Transcribed by Rob
Robertdanielmaher@gmail.com

Open D tuning (DADF#AD)

Intro:
|----------------|
|--4----4---4---3s4
|-----3---3---3--|
|--4---4---4---4-| x4
|2---2---2---2---|
|----------------|

Verse:                                  When going back to the verse:
|----------------|----------------|----------------|----------------|
|--4----4---4---4|--4----4---4---5|--5----5---5---5|--5----5---5----|
|-----3---3---3--|-----3---3---5--|-----5---5---5--|-----0---0------|
|--4---4---4---4-|--4---4---4---6-|--5---5---5---5-|--0---0---0-----|
|2---2---2---4---|----------------|----------------|5-------5---0-1-|
|----------------|4---4---4---6---|5---5---5---5---|----0-----------|

                                               Going into the chorus:
                                                   |-----------5---4|
                                                   |--5----5--------|
                                                   |-----0---0---0--|
                                                   |--0---0---0---0-| 
                                                   |5-------5---5---|
                                                   |----0-----------|

Chorus:
|-------4--------|-------4--------|--5----5---5----|--9----9---9----|
|--5--------5---5|--0--------4----|-----3---3---3--|-----5---5---5--|
|-----0---0---0--|-----0---0---0--|----------------|--5-------------|
|--0---0---0---0-|--4---4---4---4-|--5---5---5---5-|--5---5---5---5-|
|5---5---5---5---|4---4---4---4---|3---3---3---3---|7---7---7---7---|
|----------------|----------------|----------------|----------------|

|----------------|-------5--------|----------------|-------0--------|
|--5----5---5---5|--5--------5---5|-------4---4---4|--0--------0----|
|-----3---3---3--|-----5---5---5--|-----3---3---3--|-----0---0------|
|--4---4---4---4-|--5---5---5---5-|--4---4---4---4-|--0---0---0-----|
|5---5---5---0---|----------------|----------------|----0-------0-1-|
|----------------|5---5---5---5---|4---4---2---2---|0-------0-------|

Bridge:
|----------------|-------0--------|
|--2----2—-1----1|--0--------0----|
|-----0-------0--|-----0---0------|
|--0---0---0---0-|--0---0---0-----|x2
|2---2---1---1---|0---0---0---0-1-|
|----------------|----------------|

|----------------|----------------|
|--2----2--1----1|--0----0--2----2|
|-----0-------0--|-----0-------2--|
|--0---0---0---0-|--0---0---3---3-|
|2---2---1---1---|0---0---4---4---|
|----------------|----------------|                    
                                         into verse:
|----------------|--------------0-|--2---4---5-4-2-|0-------|
|--5----5---5---5|--5----5---0----|----------------|--4----4|
|-----5---5---5--|-----4---4--6---|----------------|-----3--|
|--5---5---5---5-|--5---5---5-----|----------------|--4---4-|
|----------------|----------------|------------0-1-|2---2---|
|5---5---5---5---|5---5---5-----5-|----------------|--------|

note: second bridge doesn’t have this lick^

This is how I play it.  Fool around with the transitions and voicings to see what works for you.
Tap to rate this tab
# A B C D E F G H I J K L M N O P Q R S T U V W X Y Z