Song name
# A B C D E F G H I J K L M N O P Q R S T U V W X Y Z

Elliott Smith - Lets Get Lost tab

Let's Get Lost–Elliott Smith
Tuning: Standard, Capo 5th fret
This lovely ditty needed a tab displaying all the finger picking. He plays the
bass notes pretty lightly in this song and they often come off as more rhythmic than
melodic-it often sounds like a slight pitter patter underneath the melody.


Intro:     Dsus2
|----------5----------|-5-----------------------|-3-----------------3-----|-0--------------------|
|----------3----------|-3-----------------------|-------------------------|----------------------|
|----------0----------|----------0-----0-----0--|----------0-----0-----0--|---------0-----0-----0|
|----------2----------|------2------------2-----|------2------------2-----|-----2------------2---|
|----------0----------|-0-----------0-----------|-0-----------0-----------|-0----------0---------|
|----------0----------|-------------------------|-------------------------|----------------------|

|-----------------------|------------------------|-----------------------|
|-3---------------------|-1----------------------|-0---------------------|
|--------0-----0-----0--|----------0-----0-----0-|--------------0-----2--|
|-----2-----------2-----|------2------------2----|------2----------2-----|
|-0---------0-----------|-0-----------0----------|-0---------0--------0--|
|-----------------------|------------------------|-----------------------|

  Am           Ebdim
|-------------------------2-|
|----------1----------------|
|-----2-------------2-------|
|-2---------------1---------|
|--------0------------------|
|--------------2-------2----|


Verse:
  Em                                  G
|------------------3----------------|------------------2---------------|
|------------0-----0----------------|------------0-----0---------------|
|------0-----------------0--------0-|------0-----------------0-------0-|
|----2----------2------2--------2---|----0----------0------0-------0---|
|-----------------------------------|----------------------------2-----|
|-0-------0--------0---------2------|-3-------3--------3---------------|

  C                              D
|----0---0-0-0------0---0-0-0--|----2---2-2-2------2-2---------|
|----1---1-1-1------1---1-1-1--|----3---3-3-3------3-3---------|
|----0---0-0-0------0---0-0-0--|----2---2-2-2------2-2---------|
|----2--------------2----------|-0--0-----------0--------------|
|-3--------------3-------------|-------------------------3--2--|
|------------------------------|-------------------------------|

Chorus 1:
 Am                                     D
|-------------------0-------0---------|----2---2-2-2------2-2---------|
|-------1-----3-------3---------3-----|----3---3-3-3------3-3---------|
|----2----------2-------2----------2--|----2---2-2-2------2-2---------|
|-------------------------------------|-0--0-----------0--------------|
|-0--------0--------------------------|-------------------------3--2--|
|-------------------------------------|-------------------------------|

  Am                              D                       EbmAug5
|-------------------0-----0---3-|----2---2-2-2------2-2----2-2--|
|------1------3-------3p1-----1-|----3---3-3-3------3-3----0-0--|
|----2----------2-------------2-|----2---2-2-2------2-2----0-0--|
|-------------------------------|-0--0-----------0-------1------|
|-0--------0--------------------|-------------------------------|
|-------------------------------|-------------------------------|


Chorus 2 and Bridge:
  Am                               D                               Am
|--------------------0-----0---3-|----2---2-2-2------2-2---------|-------------------0-----0---3-|
|-------1------3-------3p1-----1-|----3---3-3-3------3-3---------|------1------3-------3p1-----1-|
|----2-----------2-------------2-|----2---2-2-2------2-2---------|----2----------2-------------2-|
|--------------------------------|-0--0-----------0--------------|-------------------------------|
|-0--------0---------------------|-------------------------3--2--|-0--------0--------------------|
|--------------------------------|-------------------------------|-------------------------------|
  D                              B7
|----2---2-2-2------2---2-2-2--|-2---------------2--2---2--2--|
|----3---3-3-3------3---3-3-3--|-4---------4-----5--4---2--4--|
|----2---2-2-2------2---2-2-2--|------2----------2--2---2--2--|
|-0--0-----------0--0----------|----4---------4-------4-------|
|------------------------------|-2------2---------------------|
|------------------------------|------------------------------|

  C              Em     G        D
|----0---0-0-0----------------------2-2--------|
|----1---1-1-1----------------------3-3--------|
|----0---0-0-0-----0-0-----0-0------2-2--------|
|----2---2-2-2-----2-2-----0-0---0-------3--2--|
|-3----------------2-2-----2-2-----------------|
|----------------0------3----------------------|

After playing through the bridge the first time, go back to
chorus 1. After playing through the bridge the second time, play outro.

Outro:
Harmony:
|----------------------------[|-7-7--x--5--3--3-3--2--2-2-0-0-----0-0-0-0-0----0-0---0-0--|]
|----------------------------[|-8-8--x--7--5--5-5--3--3-3-1-0-----1-1-1-1-1----1-1---1-1--|]
|----------------------------[|-----------------------------------2-2-2-2-2----2-2---2-2--|]
|----------------------------[|-----------------------------------2-2-2-2-2----0-0---0-0--|]
|----------------------------[|--------------------------------0------------3------3------|]
|----------------------------[|-----------------------------------------------------------|]
|
|Melody:                        Em     G        D              Am           C/G
|----------------0-0-0-0-0-0-[|--------------------2-2-------------------------0-0---0-0--|]
|---1-1-1-1------1-1-1-1-1-1-[|--------------------3-3-----------1-1-1-1-------1-1---1-1--|]
|---2-2-2-2------2-2-2-2-2-2-[|---0-0-----0-0------2-2-----------2-2-2-2-------2-2---2-2--|]
|---2-2-2-2------0-0-0-0-0-0-[|---2-2-----0-0---0-------3--2-----2-2-2-2-------0-0---0-0--|]
|-0---------2----3-3-3-3-3-3-[|---2-2-----2-2------------------0---------2-----3-3---3-3--|]
|--------------3-------------[|-0------3------------------------------------3------3------|]
Repeat the bracketed part 6x. Don't play the Harmony the second time.
After repeating this segment for the 6th time, play this to end it:

Harmony:
|-7-7--x--5--3--3-3--2--2-2-0-0--0----| Hold the Am.
|-8-8--x--7--5--5-5--3--3-3-1-0--1----|
|--------------------------------2----|
|--------------------------------2----|
|--------------------------------0----|
|-------------------------------------|
|
|Melody:
|--------------------2-2---------0----|
|--------------------3-3---------1----|
|---0-0-----0-0------2-2---------2----|
|---2-2-----0-0---0-------3--2---2----|
|---2-2-----2-2------------------0----|
|-0------3----------------------------|
Play in this order:
Intro
Verse
Chorus 1
Verse
Chorus 2/bridge
Chorus 1
Verse
Chorus 2/bridge
Outro
That wraps it up. If you have any questions or comments you can reach me at wraphesh@yahoo.com
Tap to rate this tab
# A B C D E F G H I J K L M N O P Q R S T U V W X Y Z