Song name
# A B C D E F G H I J K L M N O P Q R S T U V W X Y Z

Elliott Smith - St Ides Heaven chords

Highlighted       Show chord diagrams
Standard Tuning E-A-D-G-B-E

C: x32010
C#dimAdd7: x4200x
G: 32000x
Em: 022000
F#: 244322
Em/D: x550xx


Intro:

------------------------------------------------|
------------------------------------------------|
----0-0-0-0-0-0-0-0-0-0---0-0-0-0-0-0-0-0-------|
----5-5-5-5-5-5-5-5-5-5---4-4-4-4-4-4-4-4-------|
----7-7-7-7-7-7-7-7-7-7---5-5-5-5-5-5-5-5-------|
----x-x-x-x-x-x-x-x-x-x---x-x-x-x-x-x-x-x-------|

------------------------------------------------------|
-------------------------2-2-2-2-3-2-2-2-0-0-0-2-2-2-2|
----0-0-0-0-0-0-0-0-0----0-0-0-0-0-0-0-0-0-0-0-0-0-0-0|
----2-2-2-2-2-2-2-2-2----2-2-2-2-2-2-2-2-2-2-2-2-2-2-2|
----3-3-3-3-3-3-3-3-3----0-0-0-0-0-0-0-0-0-0-0-0-0-0-0|
----x-x-x-x-x-x-x-x-x---------------------------------|


Verse 1: 
C    C#dimAdd7 C      G
Everything is exactly right
       C    C#dimAdd7    C         G
When I walk around here drunk everynight
        Em   F#             Em/D  C
With an open container from 7-11
C  C#dimAdd7 C
In St. Ides Heaven

I've been out haunting the neighborhood
And everybody can see I'm no good               (Same Chords for this verse)
When I'm walking out between parked cars
With my head full of stars

Chorus:
C    D     Em   G
High on amphetamines
G              C    D    Em   G
The moon is a light bulb breaking
G        C      D    Em   G
It'll go around with anyone
G                 C    D   Em  G
But it won't come down for anyone

Interlude:  (The bit with no singing) Played louder and with the same rhythm
from Verse 1                                               

C    C#dimAdd7 C      G

       C    C#dimAdd7    C         G

        Em   F#             Em/D  C

C  C#dimAdd7 C

It's the same chords for the verses and choruses that follow.
Tap to rate this tab
 
# A B C D E F G H I J K L M N O P Q R S T U V W X Y Z