Song name
# A B C D E F G H I J K L M N O P Q R S T U V W X Y Z

Elliott Smith - Suicide Machine tab

suicide machine by elliott smith
tab by alexander rex

standard D tuning
DGCFAd

A     x02220  D     xx0232
F#m6  xx1222  Ddim7 xx3434
A*    xx2225  B     xx4447
B7    xx4445  Dmaj7 xx0222
E     x79997  E7    022434
F#m   244222




      A       D           F#m6   D         Ddim7 A*
------14-----------------------------------/7--7-5---5-|
--14-----17---14--12--10--12--14-12--10----------------|
-------------------------------------------------------|
-------------------------------------------------------|
-------------------------------------------------------|
-------------------------------------------------------|


A  D          F#m6         D   Ddim7          A*
   baby got a place in the sun selling people shade
A             D           F#m6        D         Ddim7         A*   /C#
renting out a room in a remote little corner of profit's promenade
B          B7  D     Dmaj7
talking on the phone
B           B7 E
waiting for a  ring
     F#m  /G#             A       F#m6   D    E7    A*
well everybody's tryin to turn me into a suicide machine


A  D              F#m6        D    Ddim7                 A*
   I'll be riding forth on my pony if you wanna see me tonight
A          D               F#m6      D          Ddim7          A     /C#
dressed in black up at the line of attack by my counterpart in white
B              B7 D   Dmaj7
can't look every  way
B          B7  E
gonna move the street
F#m  /G#             A       F#m6   D    E7    A*
everybody's tryin to turn me into a suicide machine

 A     D           F#m6   D         Ddim7    A*
----------------------------------------------------|
-------14--12--10--12--14-12--10-----/12--12-10--10-|
----------------------------------------------------|
----------------------------------------------------|
----------------------------------------------------|
----------------------------------------------------|

 A               D           F#m6   D         Ddim7    A*               B
--------------------------------------------------------------/19-17-15-14-|
-14--14-14--14---14--12--10--12--14-12--10-----/12--12-10--10--------------|
---------------------------------------------------------------------------|
---------------------------------------------------------------------------|
---------------------------------------------------------------------------|
---------------------------------------------------------------------------|


B            B7 D     Dmaj7
everything's al-right
B              B7 E
except for how it seems
    F#m  /G#           A       F#m6   D    E7    A*
but everybody wants to turn me into a suicide machine


A  D          F#m6         D   Ddim7             A*
   baby got a place in the sun I had to shade my eyes
A       D               F#m6    D           Ddim7              A     /C#
I don't think I'll ever know anyone besides you but it's no surprise
B           B7  D   Dmaj7
I know what you want
B              B7  E
and I got what you need
F#m  /G#             A       F#m6   D       E7
everybody's tryin to turn me into a suicide machine
F#m  /G#             A       F#m6   D       E7
everybody's tryin to turn me into a suicide machine
F#m  /G#             A       F#m6   D     E7      A*
everybody's tryin to turn me into a suicide machine
Tap to rate this tab
 
# A B C D E F G H I J K L M N O P Q R S T U V W X Y Z