Song name
# A B C D E F G H I J K L M N O P Q R S T U V W X Y Z

Elliott Smith - Grand Mal chords

Highlighted       Show chord diagrams
grand mal by elliott smith

open c tuning
CGCEGc


   G riff 1
c|-7-----------|
G|-7-----------|
E|-7-----------|
C|-7--/5-/4-/2-|
G|-7--/5-/4-/2-|
C|-7--/5-/4-/2-|

   riff 2
c|-------|
G|-------|
E|-------|
C|-/4-/2-|
G|-/4-/2-|
C|-/4-/2-|



Emsus4  x2434x   C      000000
D7      6765x0   F6     57555x
F       555555   G      777777
F9m     50545x   D      222222
Em      40434x   Dmsus4 20212x
Cmaj7   000040   


intro
c|---------------------------------------------------|
G|---4-4---4-4-----4-4---4-4-----4-----4-----4-------|
E|---3-3---3-3-----3-3---3-3-----3-----3-----3-------|
C|---4-4---4-4-----4-4---4-4-----4-----4-----4-------|
G|-2-----2-----0-2-----2-----0-2---0-2---0-2---0-2-0-|
C|---------------------------------------------------|

 
C                        D7 F6        C 
Grand mal paid you a call,  on the avenue
C                                        D7    F6             C
and bright white shot through the night, and i followed it to you
F                 C
Look through your window
F              G riff 1
Went blind and broke,
C                                   D
and he walked out into a ghost town
F9m                      C             D
Noone to see what you're going through now
F9m                     riff 2
Noone to see what you do
  
        
c|-0--0--x--0----7-----------0-----5----0-----------0-|
G|-0--4--5--0----7/9---------0-----5----0-----------0-|
E|-0--0--4--0----7-----------0-----5/6--0-7---------0-|
C|-0--0--5--0----7---7/5-4-2-0-2-4-5----0-7-7/5-4-2-0-|
G|-0--0--0--0----7---7/5-4-2-0-2-4-5----0-7-7/5-4-2-0-|
C|-0--0--5--0--5/7---7/5-4-2-0-2-4-5----0-7-7/5-4-2-0-|


C                                     D7 F6             C
You took a fall and, i followed down, as far as i could go
C                         D7 F6             C
Grand Mal its all over now,  burried back below
F             C
When it comes calling,
F           G riff 1
drawing you in
C                              D
Dont forget how much i love you
F9m                             C             D
Theres noone to see what you're going through now
F9m                      C             D
Noone to see what you're going through now,
F9m
noone can see what you do 
Em       Dmsus4 F9m    C    Emsus4 F9m Dmsus4 C
Remember these  mirror eyes


original tab by unknown
new arrangement and additions by alexander rex
october 2013
Tap to rate this tab
# A B C D E F G H I J K L M N O P Q R S T U V W X Y Z