Song name
# A B C D E F G H I J K L M N O P Q R S T U V W X Y Z

Elliott Smith - I Didnt Understand Acoustic tab

Intro (Riff 1)
E)-------3---1---0-----0---0---1-----0---1---1---3---1--|
B)---1--------------3-----------------------------------|
G)------------------------------------------------------|
D)-----------0-------------------------------0-------1--|
A)---0--------------1------3---------4------------------|
E)------------------------------------------------------|

Dm x2  F x2  Bb x4
VERSE 1 
Riff 1
Thought you'd be looking for the next in line to love
then ig(Dm)nore put (F)out and put a(Bb)way
Riff 1
and so you'd soon be leaving me alone like I'm supposed to be
to(Dm)night to(F)morrow and every(Bb)day
 (C)There's nothing here that you'll (F)miss
I can (Gm)guarantee you (F)this is a (Gm)cloud of (Dm)smoke
(C)trying to occupy(F)space                                                         
(Gm)what a fucking (F)joke , 
(Gm)what a fucking joke (Riff 1).   Dm F Bb

VERSE 2 -
   Riff 1
I waited for a bus to separate the both of us
and take me (Dm)off   far a(F)way from (Bb)you
 Riff 1
'cos my feelings never change a bit i always feel like shit
I don't know (Dm)why i guess (F)i 'just (Bb)do'
 (C)You once talked to me about (F)love
and you (Gm)painted pictures (F)of a (Gm)never-never (Dm)land
 (C) and i could've gone to that (F)place
but i  (Gm)didn't under(F)stand , I  (Gm)didn't under(F)stand
I  (Gm)didn't under(Outro)stand

Outro
E)-------3---1---0-----0---0---1-----0---1---1---3---1---3|
B)---1--------------3-------------------------------------|
G)--------------------------------------------------------|
D)-----------0-------------------------------0-------0----|
A)---0--------------1------3---------4--------------------|
E)--------------------------------------------------------|


E)---3---5---6---5---3---1---0----------------------|
B)--------------------------------3-----------------|
G)-------------------0---2---0----------------------|
D)-------2-------3----------------0-----------------|
A)--------------------------------------------------|
E)--------------------------------------------------|


Whilst playing the C Chord also play:-
G)---0-0-0-2-2-3---
Tap to rate this tab
# A B C D E F G H I J K L M N O P Q R S T U V W X Y Z