Song name
# A B C D E F G H I J K L M N O P Q R S T U V W X Y Z

Elliott Smith - Junk Bond Trader tab

Help us improve GuitareTab! Take a short survey!
-------------------------------------------------------------------------------
			     Junk Bond Trader - Elliott Smith
-------------------------------------------------------------------------------
Tabbed by: Adam Warburton
Written by: Elliott Smith
Album: Figure 8
Tuning: E,A,D,G,B,e

e|-------------------------------------------|
B|-4-4---------------11-10-------------------|
G|-5-5-------------8-------5-7---------------|
D|-5-5-----1h3-1-3---------6-8---------------|
A|-3-3-1h3-----------------6-8---------------|
E|-------------------------4-6---------------|

e|-----------------------------|
B|-4-4-----8-8-----------------|
G|-5-5-5-5-8-8-2-2-5-7---------|
D|-5-5-6-6-8-8-3-3-6-8---------|
A|-3-3-6-6-6-6-3-3-6-8---------|
E|-----4-4-----1-1-4-6---------|


   'happy holiday....'
e|---------------------------------|
B|-5-----3-----5-------------------|
G|-5-----3-----5-----5-----7-------|
D|-5-----3-----5-----6-----8-------|
A|-3-----3-----3-----6-----8-------|
E|-------------------4-----6-------|

===============================================================================
Related for Junk Bond Trader tab