Elliott Yamin - Wait For You tab

spent a lot of time on this to perfect it......i`m like %99 sure its right



E|-------------------------------|
B|-------------------------------|
G|--5--4--0-------2-----0--------| 
D|--------------2---------2------|
A|-------------------------------|
E|-------------------------------|

E|-------------------------------|
B|-------------------------------|
G|--5--4--0-------2-----0--------| 
D|--------------2---------2------|
A|-------------------------------|
E|-------------------------------|

E|-------------------------------------------------|
B|-------------------------------------------------|
G|--5--4--0---2----0---------------0---5---0---2---| 
D|----------2--------2------2---4------------------|
A|-------------------------------------------------|
E|-------------------------------------------------|
Tap to rate this tab
 
# A B C D E F G H I J K L M N O P Q R S T U V W X Y Z