Song name
# A B C D E F G H I J K L M N O P Q R S T U V W X Y Z

Ellis Paul - The World Aint Slowin Down tab

Alright, I haven't found a single correct tab for this yet, so here's an almost 
accurate version of the song. Ellis plays it in an open tuning. This song is all 
about having a solid rhythm, listen carefully to the original song for how he strums it.

Tuning: Open B (When he plays it live, it's an open Bb)
eb
B
F#
Eb
B
F#

D = Down stroke
U = Up stroke


Verse

     D      U     D      U     U             D   U    D    U   U
|------------------------|-------------------------|
|--12--12--12--14--14----|-----------12-12---------|
|--12--12--12--12--12----|-------------------------|
|--12--12--12--12--12----|--8--8--8--8--8----------|
|--12--12--12--12--12----|--9--9--9--9--9----------|
|--12--12--12--12--12----|-------------------------|


       D  U    D    U  U                    D   U   D    U   D    D
|---7--7--7--7--7--------|--5--5--5--5--0--0-------------|
|---7--7--7--7--7--------|--5--5--5--5--0--0-------------|
|---7--7--7--7--7--------|--5--5--5--5--0--0-------------|
|---7--7--7--7--7--------|--5--5--5--5--3--1-------------|
|---7--7--7--7--7--------|--5--5--5--5--4--2-------------|
|---7--7--7--7--7--------|--5--5--5--5-------------------|



Chorus

Just the chords, you can figure out the rhythm by yourself.


First chord starts on "gone"
in the lyrics                             Second chord starts on "going"
|--0---------------------|----0-------------------|
|--0---------------------|----0-------------------|
|--0---------------------|----0-------------------|
|--0---------------------|----1-------------------|
|--0---------------------|----2-------------------|
|--0---------------------|------------------------|

Third chord on "world"            Fourth on "down"
|----5-------------------|----7-------------------|
|----5-------------------|----7-------------------|
|----5-------------------|----7-------------------|
|----5-------------------|----7-------------------|
|----5-------------------|----7-------------------|
|----5-------------------|----7-------------------|

The same four chords repeat in the chorus.
Tap to rate this tab
 
# A B C D E F G H I J K L M N O P Q R S T U V W X Y Z