Song name
# A B C D E F G H I J K L M N O P Q R S T U V W X Y Z

Ellis Paul - 3000 Miles tab

Ellis Paul
3000 miles

this ones pretty easy. chorus riff is basically the whole song. peace
Tuning: E A D G B D
capo 4

intro/verse/chorus

|-0-0-0-0-0-0-0-0-0-0-0-0-0-0-0-0--------------|
|-3-3-3-3-3-3-3-3-3-3-3-3-3-3-3-3--------------|
|-2-2-2-2-2-2-2-2-0-0-0-0-0-0-0-0--------------|
|-0-0-0-0-4x4x4x4-0-0-0-0-0-0-0-0--------------|
|-----------------2-2-2-2-3-3-2-2--------------|
|-----------------0h3-3-3-3-3-3-3--------------|

pre-chorus

|-0-0-0-0-0-0-0-0-0-0-0-0-0-0-0-0--------------|
|-3-3-3-3-3-3-3-3-3-3-3-3-3-3-3-3--------------|
|-0-0-0-0-0-0-0-0-2-2-2-2-0-0-0-0--------------|
|-2-2-2-2-2-2-2-2-2-2-2-2-0-0-0-0--------------| x1
|-2-2-2-2-2-2-2-2-0-0-0-0-2-2-2-2--------------|
|-0-0-0-0-0-0-0-0-0-0-0-0-3-3-3-3--------------|


Bridge

|-0-0-0-0-0-0-0-0-0-0-0-0-0-0-0-0--------------|
|-3-3-3-3-3-3-3-3-3-3-3-3-3-3-3-3--------------|
|-2-2-2-2-2-2-2-2-0-0-0-0-0-0-0-0--------------| x2
|-0-0-0-0-0-0-0-0-2-2-2-2-0-0-0-0--------------|
|-----------------3-3-3-3-2-2-2-2--------------|
|-----------------0-0-0-0-3-3-3-3--------------|


|-0-0-0-0-0-0-0-0-0-0-0-0-0-0-0-0--------------|
|-3-3-3-3-3-3-3-3-3-3-3-3-3-3-3-3--------------|
|-0-0-0-0-0-0-0-0-2-2-2-2-0-0-0-0--------------|
|-2-2-2-2-2-2-2-2-2-2-2-2-0-0-0-0--------------| x2
|-2-2-2-2-2-2-2-2-0-0-0-0-2-2-2-2--------------|
|-0-0-0-0-0-0-0-0-0-0-0-0-3-3-3-3--------------|
Tap to rate this tab
# A B C D E F G H I J K L M N O P Q R S T U V W X Y Z