Song name
# A B C D E F G H I J K L M N O P Q R S T U V W X Y Z

Ellison Lorraine - Stay With Me tab

Finch
Stay With Me
What It Is To Burn
2002
Submitted by: paramore_fans@yahoo.com

Key: Bb

Tuning: Standard EADGBe

Chords used:
Bb - x13331
Gm - 355333
Eb - x68886
Cm - x35543
F -  133211


Intro: Bb--Bb--Gm--Gm (x2) Eb(hold)

Guitar 2:
e|-------------------|---|
B|-1-1--1-1--1h3p1---|---|
G|-3-3--3-3--3-----3-|-8-|
D|-------------------|-8-|
A|-------------------|-6-|
E|-------------------|---|
           x4


Verse 1:
Bb                Eb
  Once again your eyes
                Bb
Make it hard to say goodbye
        Gm        F
So I'll just keep driving
Bb                Eb
  Where you wanna go
                  Bb
It doesn't really matter
           Gm      F         Eb
As long as you are here with me
     Eb      Eb Eb
With me With me


Chorus:
Bb             Bb
Whoooa There's something in the air tonight
Gm               Gm
  Something that makes me feel alive
           Bb
And I said whoooa
Bb                                   Gm
What were the words that you said to me
             Gm              Eb(hold)
That made me feel so special now


Verse 2:
Bb                Eb
  Once again your eyes
                Bb
Make it hard to ask you why
     Gm       F        Bb
So I sit here knuckles tight
                  Eb
Hands against the wheel
                      Bb
Your head against the glass
        Gm      F       Eb
And you mean so much to me
   Eb    Eb Eb
To me To me


(Repeat Chorus)


Bb     Gm
Whoooa whoooa
(Repeat)

Eb----Eb----


Interlude: Bb-Cm-Eb-Gm-F-Eb

Guitar 2: Pluck faster
e|---------------------------------|
B|-----------------1-1-1-1---------|
G|-3-3-3-3-2-2-2-2---------3-3-3-3-|
D|---------------------------------|
A|---------------------------------|
E|---------------------------------|
                 x2

e----------------------------------|
B|-----------------4-4-4-4-3-3-3-3-|
G|-3-3-3-3-2-2-2-2-----------------|
D|---------------------------------|
A|---------------------------------|
E|---------------------------------|

e|---------------------------------|
B|-----------------1-1-1-1---------|
G|-3-3-3-3-2-2-2-2---------3-3-3-3-|
D|---------------------------------|
A|---------------------------------|
E|---------------------------------|

Guitar 3:
e|-6--5-|
B|------|
G|------|
D|------|
A|------|
E|------|


Bridge:
 Bb  Cm   Eb
Stay with me
Gm            F
Cigarettes in open air
Eb
Hand in hand
            Bb  Cm   Eb
And I said stay with me
      Gm              F
Cause every star that I see
   Eb
Is brighter than the last
    Bb       Bb
So stay with me
Gm
Cigarettes in open air
Gm
Hand in hand
            Bb       Bb
And I said stay with me
      Gm
Cause every star that I see
   Gm
Is brighter than the last


Outro:
Bb  Cm   Eb
Stay with me
Gm            F
Cigarettes in open air
Eb
Hand in hand
            Bb  Cm   Eb
And I said stay with me
      Gm              F
Cause every star that I see
   Eb
Is brighter than the last
Bb  Cm   Eb(hold)
Stay with me
Tap to rate this tab
 
# A B C D E F G H I J K L M N O P Q R S T U V W X Y Z