Guitaretab - guitar tabs
Song name
# A B C D E F G H I J K L M N O P Q R S T U V W X Y Z

Ellora - Not All Heroes Fly tab

Intro              x2           
e|--------------------------------------------| 
B|--------------------------------------------| 
G|----11-11/1212-----7-7/99----9-9/11-9-7-6-7-|
D|-99-------------55--------77----------------| 
A|-99-9---9/1010--55-5-5/77-77-7-7/9--7-5-4-5-|
D|-99-------------55--------77----------------|

Verse                 x2           
e|----------------------------------------------| 
B|----------------------------------------------|
G|-----------------------7-77-------------------|
D|-999---555-555-555-555-7-77---777-777-777-777-| 
A|-999---555-555-555-555-5-55---777-777-777-777-|
D|-999---555-555-555-555--------777-777-777-777-|

Pre Chorus                           
e|-----------------------------------------------------------------| 
B|-----------------------------------------------------------------|
G|-------------777-------------777---------------------------------|
D|-555-555-555-777-999-999-999-777-555-555-555-555-222-222-222-777-| 
A|-555-555-555-555-999-999-999-555-555-555-555-555-222-222-222-777-|
D|-555-555-555-----999-999-999-----555-555-555-555-222-222-222-777-|

e|------------------------------------------------------------------| 
B|------------------------------------------------------------------|
G|-------------777-------------777----------------------------------|
D|-555-555-555-777-999-999-999-777-555-555-555-555-7777777777777777-| 
A|-555-555-555-555-999-999-999-555-555-555-555-555-7777777777777777-|
D|-555-555-555-----999-999-999-----555-555-555-555-7777777777777777-|
                                                   PM. . . . . . . .
Chorus
e|------------------------------------------| 
B|------------------------------------------| 
G|-77777777---------------------------------|
D|-77777777--77777777--99999999--55555555---| 
A|-55555555--77777777--99999999--55555555---|
D|-----------77777777--99999999--55555555---|

e|------------------------------------------| 
B|------------------------------------------| 
G|-77777777--99999999--44444444--77777777---|
D|-77777777--77777777--22222222--55555555---| 
A|-55555555--77777777--22222222--55555555---|
D|-----------77777777--22222222--55555555---|

Pre Verse             x3         
e|--------------------------------------------| 
B|--------------------------------------------| 
G|----11-11/1212-----7-7/99----9-9/11-9-7-6-7-|
D|-99-------------55--------77----------------| 
A|-99-9---9/1010--55-5-5/77-77-7-7/9--7-5-4-5-|
D|-99-------------55--------77----------------|

Verse                 x2           
e|--------------------------------------------------------------------| 
B|--------------------------------------------------------------------|
G|------------------------------7-------------------------------------|
D|-9-9-7-5p0-4-4h5-555555555555-7-7p0-5p0-4p0--7p0-5p0-4-777777777777-| 
A|-9---------------555555555555-5------------------------777777777777-|
D|-9---------------555555555555--------------------------777777777777-|
[ Tab from: http://www.guitaretab.com/e/ellora/100141.html ]
Verse Pt.2     x2
e|--------------------------------------------| 
B|--------------------------------------------| 
G|--------------------------------------------|
D|----7p0-5---5p0-4---12p0-11p0-7p0-5p0-4p0-5-| 
A|---5-------7-------9------------------------|
D|-55------77------99--------77---------------|

Pre Chorus     x2
e|---------------------------| 
B|---------------------------|
G|---------------------------|
D|-5555---7777---9999---9999-| 
A|-5555---7777---9999---9999-|
D|-5555---7777---9999---9999-|

Chorus
e|------------------------------------------| 
B|------------------------------------------| 
G|-77777777---------------------------------|
D|-77777777--77777777--99999999--55555555---| 
A|-55555555--77777777--99999999--55555555---|
D|-----------77777777--99999999--55555555---|

e|------------------------------------------| 
B|------------------------------------------| 
G|-77777777--99999999--44444444--77777777---|
D|-77777777--77777777--22222222--55555555---| 
A|-55555555--77777777--22222222--55555555---|
D|-----------77777777--22222222--55555555---|

Bridge             x2
e|-----------------------------------------------------| 
B|-----------------------------------------------------|
G|------11111111-------11111111------11~------11/12/11-|
D|-5555-----------7777----------9999-----9999----------| 
A|-5555-99-9-9--7777-9-9-9-9-9999-9~-9999-9-10-9--|
D|-5555-----------7777----------9999-----9999----------|

Lead In
e|---------------------------------| 
B|---------------------------------| 
G|-7~-----6~--------6--------6-7/9-|
D|----------------7--7-7---7-------| 
A|-5~-----------55-5--5--55-5------|
D|---------------------------------|

Chorus
e|----------------------------------| 
B|----------------------------------| 
G|----------------------------------|
D|---77777777--99999999--55555555---| 
A|---77777777--99999999--55555555---|
D|---77777777--99999999--55555555---|

e|------------------------------------------| 
B|------------------------------------------| 
G|-77777777--99999999--44444444--77777777---|
D|-77777777--77777777--22222222--55555555---| 
A|-55555555--77777777--22222222--55555555---|
D|-----------77777777--22222222--55555555---|

e|------------------------------------------| 
B|------------------------------------------| 
G|-77777777---------------------------------|
D|-77777777--77777777--99999999--55555555---| 
A|-55555555--77777777--99999999--55555555---|
D|-----------77777777--99999999--55555555---|

e|------------------------------------------| 
B|------------------------------------------| 
G|-77777777--99999999--44444444--77777777---|
D|-77777777--77777777--22222222--55555555---| 
A|-55555555--77777777--22222222--55555555---|
D|-----------77777777--22222222--55555555---|

Outro            x2
e|-----------------------------------------------------| 
B|-----------------------------------------------------|
G|------11111111-------11111111------11~------11/12/11-|
D|-5555-----------7777----------9999-----9999----------| 
A|-5555-99-9-9--7777-9-9-9-9-9999-9~-9999-9-10-9--|
D|-5555-----------7777----------9999-----9999----------|

          X2
e|---------------------------| 
B|---------------------------|
G|---------------------------|
D|-5555---7777---9999---9999-| 
A|-5555---7777---9999---9999-|
D|-5555---7777---9999---9999-|

e|--------------| 
B|--------------|
G|-7---9---11~--|
D|-5---7---9~---| 
A|-5---7---9~---|
D|-5---7---9~---|

Related for Not All Heroes Fly tab