Guitaretab - guitar tabs
Song name
# A B C D E F G H I J K L M N O P Q R S T U V W X Y Z

Ellora - Prelude To Light tab

Awesome New Song by Ellora
Check the myspace www.myspace.com/elloramusic or www.elloraband.com

Rhythm Guitar

Intro              x2           
e|-------------------------------------------------------| 
B|-------------------------------------------------------| 
G|-88888888----------------------------------------------|
D|-88888888---101010101010101010---66666666---6666-888---| 
A|-66666666---101010101010101010---66666666---6666-888---|
D|------------101010101010101010---66666666---6666-888---|

Verse                 x2           
e|--------------------------------------------| 
B|--------------------------------------------|
G|--------------------------------------------|
D|-88888888-88888888---88888-555---56666666---| 
A|-66666666-66666666---88888-555---56666666---|
D|---------------------88888-555---56666666---|
PM. . . . . . . . . . . . . . . . . . . . . . |

Chorus                   x2           
e|---------------------------------------------| 
B|---------------------------------------------| 
G|-88888888------------------------------------|
D|-88888888--88888888--55555555--1010-6666-8---| 
A|-66666666--88888888-55555555--1010-6666-8---|
D|-----------88888888--55555555--1010-6666-8---|

Pre Verse                  
e|-------------------------------------------------------| 
B|-------------------------------------------------------| 
G|-88888888----------------------------------------------|
D|-88888888---101010101010101010---66666666---6666-xxx---| 
A|-66666666---101010101010101010---66666666---6666-xxx---|
D|------------101010101010101010---66666666---6666-xxx---|

Verse                 x2           
e|--------------------------------------------| 
B|--------------------------------------------|
G|--------------------------------------------|
D|-88888888-88888888---88888-555---56666666---| 
A|-66666666-66666666---88888-555---56666666---|
D|---------------------88888-555---56666666---|
PM. . . . . . . . .  

Chorus                   x2           
e|---------------------------------------------| 
B|---------------------------------------------| 
G|-88888888------------------------------------|
D|-88888888--88888888--55555555--1010-6666-8---| 
A|-66666666--88888888-55555555--1010-6666-8---|
D|-----------88888888--55555555--1010-6666-8---|

Bridge                          
e|--------------------------------------| 
B|--------------------------------------| 
G|----77778----77778--------------------|
D|-55-xxxxx-66-xxxxx-11111111-33333333--| 
A|-55-55556-66-55556-11111111-33333333--|
D|-55-------66-------11111111-33333333--|
e|------------------------------------| 
B|------------------------------------| 
G|----77778----77778------------------|
D|-55-xxxxx-66-xxxxx-88888888-88888~--| 
A|-55-55556-66-55556-88888888-88888~--|
D|-55-------66-------88888888-88888~--|
[ Tab from: http://www.guitaretab.com/e/ellora/99701.html ]
Lead In
e|---------------------------------------------------| 
B|---------------------------------------------------| 
G|-88-88888------------------------------------------|
D|-88-88888---1010-101010101010---55-55555---88888---| 
A|-66-66666---1010-101010101010---55-55555---88888---|
D|------------1010-101010101010---55-55555---88888---|
                                           PM.....

Final Chorus

Chorus                   x4           
e|---------------------------------------------| 
B|---------------------------------------------| 
G|-88888888------------------------------------|
D|-88888888--88888888--55555555--1010-6666-8---| 
A|-66666666--88888888-55555555--1010-6666-8---|
D|-----------88888888--55555555--1010-6666-8---|

Outro              x2           
e|-------------------------------------------------------| 
B|-------------------------------------------------------| 
G|-88888888----------------------------------------------|
D|-88888888---101010101010101010---66666666---6666-888---| 
A|-66666666---101010101010101010---66666666---6666-888---|
D|------------101010101010101010---66666666---6666-888---|



Lead Guitar

Intro                     x3         
e|---6---6----6---6-----6----6---6-----------6-| 
B|-6-6---8--6-6---8-----6--6-6---8---9---8---6-| 
G|-8---8----8---8-----8----8---8---8---8---8---|
D|---------------------------------------------| 
A|---------------------------------------------|
D|---------------------------------------------|
Chorus                     x2        
e|----------------------------------| 
B|-8-6-------6-8-6--8-6-------6-8-6-|
G|-----8-7-8------------8-5-8-------|
D|----------------------------------| 
A|----------------------------------|
D|----------------------------------|

Pre Verse
e|---6---6----6---6-----6----6---6----------| 
B|-6-6---8--6-6---8-----6--6-6---8---9---8--| 
G|-8---8----8---8-----8----8---8---8---8----|
D|------------------------------------------| 
A|------------------------------------------|
D|------------------------------------------|

Chorus                     x2        
e|----------------------------------| 
B|-8-6-------6-8-6--8-6-------6-8-6-|
G|-----8-7-8------------8-5-8-------|
D|----------------------------------| 
A|----------------------------------|
D|----------------------------------|


Final Chorus        x2
e|----------------------------------| 
B|-8-6-------6-8-6--8-6-------6-8-6-|
G|-----8-7-8------------8-5-8-------|
D|----------------------------------| 
A|----------------------------------|
D|----------------------------------|

                    X2
e|----------------------------------| 
B|----------------------------------|
G|-8-7-5---5-7-8-7--8-7-5---5-7-8-7-|
D|-------8----------------6---------| (Harmony)
A|----------------------------------|
D|----------------------------------|

Outro
e|---6---6----6---6-----6----6---6---------------6~--| 
B|-6-6---8--6-6---8-----6--6-6---8---9---8---6h8-8~--| 
G|-8---8----8---8-----8----8---8---8---8---8-----8~--|
D|---------------------------------------------------| 
A|---------------------------------------------------|
D|---------------------------------------------------|


Please rate!

Cheers
Related for Prelude To Light tab